Song name
# A B C D E F G H I J K L M N O P Q R S T U V W X Y Z

Endeverafter - Tip Of My Tongue tab

This tab isn't anywhere else on the internet, ANYWHERE so I decided to figure it
out and post it here.
This is the first tab I tabbed out on my own, just to let you know.

Artist- Endeverafter
Title- Tip of My Tongue
Tuning- Drop D

Key:
.= Palm Mute
/= Hold Note

e|------------------------|
b|------------------------|
g|------------------------|  x2
d|4-4-0-2-4-4h5-4p2-2-0---|
a|2-2-------------------4-|
d|------------------------|
      . . .

e|----------------------------|
b|----------------------------|
g|----------------------------|
d|--------0-2-4-4h5-4p2-2-0---|
a|5-5-5---------------------4-|
d|5-5-5-----------------------|
          . . .

e|---------------------------|
b|---------------------------|
g|---------------------------|
d|2-2-2-0-2-4-4h5-4p2-2-0----|
a|0-0-0-------------------4--|
d|---------------------------|
        . . .

e|--------------------------|
b|--------------------------|
g|--------------------------|  x2
d|4-4-4-0-2-4-4h5-4p2-2-0---|
a|2-2-2-------------------4-|
d|--------------------------|
        . . .

e|----------------------------|
b|----------------------------|
g|----------------------------|
d|--------0-2-4-4h5-4p2-2-0---|
a|5-5-5---------------------4-|
d|5-5-5-----------------------|
          . . .

e|---------------------------|
b|---------------------------|
g|---------------------------|
d|2-2-2-0-2-4-4h5-4p2-2-0----|
a|0-0-0-------------------4--|
d|---------------------------|
        . . .

e|--
b|--
g|--
d|4/
a|2/
d|--

Then the singing starts.
Tap to rate this tab
# A B C D E F G H I J K L M N O P Q R S T U V W X Y Z