Guitaretab - guitar tabs
Song name
# A B C D E F G H I J K L M N O P Q R S T U V W X Y Z

Endeverafter - Poison tab

Poison - EndeverafteR A Luke Smart tab
key:
..... = ring
x = mute note
h = hamer on
p = pull off
\ = slide down

Thatís right Sam. 
The solo isnít completely right but the taping part is

intro
e|--------------------------------------------------------------------|
B|--------------------------------------------------------------------|
G|--------------------------------------------------------------------|
D|--------------------------------------------------------------------|
A|-------5h7p5h7-5h7p5h7-5h7-5h8p5h8-5h8p5h8-5h8-7h9p7h9-7h9p7h9-7h9--|
E|--------------------------------------------------------------------|

e|---------------------------------------------------------------------|
B|---------------------------------------------------------------------|
G|---------------------------------------------------------------------|
D|---------------------------------------------------------------------|
A|---7h10p7h10-7h10p7h10-7h10-3h5p3h5-3h5p3h5-3h5-5h7p5h7-5h7p5h7-5h7--|
E|---------------------------------------------------------------------|

e|--------------------------------------------------------------------|
B|---------------------------------------------------------------------|
G|---------------------------------------------------------------------|
D|---------------------------------------------------------------------|
A|--7h9p7h9--7h9p7h9--7h9--7h10p7h10--7h10p7h10--7h10--10-7-5\10.....--|
E|---------------------------------------------------------------------|

e|---------------------------------------------------------------------|
B|---------------------------------------------------------------------|
G|---------------------------------------------------------------------|
D|---------------------------------------------------------------------|
A|--10-7-5-7p0.....10-7-5\10----------------- donít know this part------|
E|---------------------------------------------------------------------|

Verse
e|----------------------------------------------------------------------|
B|----------------------------------------------------------------------|
G|----------------------------------------------------------------------| 
D|----------------------------------------------------------------------|
A|-----55555555555555555555555555555555555555555555555555555555555555555|
E|----------------------------------------------------------------------|

e|----------------------------------------------------------------------|
B|----------------------------------------------------------------------|
G|----------------------------------------------------------------------| x2
D|----------------------------------------------------------------------|
A|-----55555555555555555555555555---------------------------------------|
E|--------------------------------555555555555555555ó3333333333333333333|




Chorus
e|-------------------|    ----------------------------------------------|
B|-------------------|    ----------------------------------------------|
G|-------------------|    ----------------------------------------------| 
D|---8-8-8--8-8-8-xx-|    8x8--8--10x10--10--12x12--12---15x15--15------| x2
A|---8-8-8--8-8-8-xx-|    8x8--8--10x10--10--12x12--12---15x15--15------|
E|---6-6-6--6-6-6-xx-|    6x6--6---8x8---8---10x10--10---13x13--13------|

e|---------------------------------------------------------------------|
B|----------------------------------------------------------------------|   
G|----------------------------------------------------------------------|
D|-------------12-12-12--12-12-12--12-12--12-12-12--12-12-12------------|
A|-------------12-12-12--12-12-12--12-12--12-12-12--12-12-12------------|
E|-------------10-10-10--10-10-10--10-10--10-10-10--10-10-10------------|

Verse 2
e|----------------------------------------------------------------------|
B|----------------------------------------------------------------------|
G|----------------------------------------------------------------------| x2
D|----------------------------------------------------------------------|
A|-----55555555555555555555555555---------------------------------------|
E|--------------------------------555555555555555555-3333333333333333333|

Chorus 2
e|-------------------|    ----------------------------------------------|
B|-------------------|    ----------------------------------------------|
G|-------------------|    ----------------------------------------------| 
D|---8-8-8--8-8-8-xx-|    8x8--8--10x10--10--12x12--12---15x15--15------| x2
A|---8-8-8--8-8-8-xx-|    8x8--8--10x10--10--12x12--12---15x15--15------|
E|---6-6-6--6-6-6-xx-|    6x6--6---8x8---8---10x10--10---13x13--13------|

Solo
Donít know this part

e|----------------------------------------------------------------------|
B|----------------------------------------------------------------------|
G|-------------------------------------------------2-3-5-2h3-2-3-5-2-2h5| x2
D|--2-3-5-2-2h3-2-3-5-2-2h5-2-3-5-2-2h3-2-3-5-2-2h5---------------------|
A|----------------------------------------------------------------------|
E|----------------------------------------------------------------------|

e|----------------------------------------------------------------------|
B|-----------------------10h11h12p10h11h12p10h11h12p10h11h12h10h110h12^-|
G|2-3-5-2-2h3-2-3-5-2-2h5-----------------------------------------------| 
D|----------------------------------------------------------------------|
A|----------------------------------------------------------------------|
E|----------------------------------------------------------------------|
[ Tab from: http://www.guitaretab.com/e/endeverafter/192144.html ]
          T           T           T           T           T           T
e|-10h13h19p13p10h13h19p13p10h13h19p13p10h13h19p13p10h13h19p13p10h13h20-|
B|----------------------------------------------------------------------|
G|----------------------------------------------------------------------| 
D|----------------------------------------------------------------------|
A|----------------------------------------------------------------------|
E|----------------------------------------------------------------------|

          T           T           T           T           T           T
e|-10h13h20p13p10h13h20p13p10h13h20p13p10h13h20p13p10h13h19p13p10h13h19-|
B|----------------------------------------------------------------------|
G|----------------------------------------------------------------------| 
D|----------------------------------------------------------------------|
A|----------------------------------------------------------------------|
E|----------------------------------------------------------------------|

          T           T           T           T           T           T
e|-10h13h19p13p10h13h19p13p10h13h19p13p10h13h22p13p10h13h22p13p10h13h22-|
B|----------------------------------------------------------------------|
G|----------------------------------------------------------------------| 
D|----------------------------------------------------------------------|
A|----------------------------------------------------------------------|
E|----------------------------------------------------------------------|

          T           T           T           T           T           T
e|-10h13h22p13p10h13h22p13p10h13h19p13p10h13h19p13p10h13h19p13p10h13h19-|
B|----------------------------------------------------------------------|
G|----------------------------------------------------------------------| 
D|----------------------------------------------------------------------|
A|----------------------------------------------------------------------|
E|----------------------------------------------------------------------|

         T            T           T           T           T           T
e|-10h13h19p13p10h13h20p13p10h13h20p13p10h13h20p13p10h13h20p13p10h13h20-|
B|----------------------------------------------------------------------|
G|----------------------------------------------------------------------| 
D|----------------------------------------------------------------------|
A|----------------------------------------------------------------------|
E|----------------------------------------------------------------------|

          T           T           T           T           T           T
e|-10h13h19p13p10h13h19p13p10h13h19p13p10h13h19p13p10h13h19p13p10h13h19-|
B|----------------------------------------------------------------------|
G|----------------------------------------------------------------------| 
D|----------------------------------------------------------------------|
A|----------------------------------------------------------------------|
E|----------------------------------------------------------------------|

      T      T     T     T     T     T     T     T     T     T     T
e|-10h19p10h19p10h19p10h19p10h20p10h20p10h20p10h20p10h21p10h21p10h21p10-|
B|----------------------------------------------------------------------|
G|----------------------------------------------------------------------| 
D|----------------------------------------------------------------------|
A|----------------------------------------------------------------------|
E|----------------------------------------------------------------------|
 
   T     T     T     T     T     T     T     T     T     T     T
e|-21h10p21h10p22h10p22h10p22h10p22p10h22p10h22p10h22p10h22p10h22ó19^---|
B|----------------------------------------------------------------------|
G|----------------------------------------------------------------------| 
D|----------------------------------------------------------------------|
A|----------------------------------------------------------------------|
E|----------------------------------------------------------------------|

e|----------------------------------------------------------------------|
B|--------------not sure about this part but it gives you idea----------|   
G|----------------------------------------------------------------------|
D|-------------12-12-12--12-12-12--12-12--12-12-12--12-12-12--12--------|x4?
A|-------------12-12-12--12-12-12--12-12--12-12-12--12-12-12--12--------|
E|-------------10-10-10--10-10-10--10-10--10-10-10--10-10-10--12--------|

don't know this part

e|-----------------------------------------------------|
B|-----------------------------------------------------|
G|-----------------------------------------------------| 
D|-------8x8--8--10x10--10--12x12--12---15x15--15------| x2
A|-------8x8--8--10x10--10--12x12--12---15x15--15------|
E|--------x6--6---8x8---8---10x10--10---13x13--13------|

e|-----------------------------------------------------|
B|-----------------------------------------------------|
G|-----------------------------------------------------| 
D|-------8888---10101010---12121212---15151515---------| 
A|-------8888---10101010---12121212---15151515---------|
E|-------6666---8-8-8-8----10101010---13131315---------|

e|-----------------------------------------------------|
B|-----------------------------------------------------|
G|-----------------------------------------------------| 
D|-------8888---10101010---12121212---1512101088-------| 
A|-------8888---10101010---12121212---1512101088-------|
E|-------6666---8-8-8-8----10101010---13108-8-66-------|

e|-----------------------------------------------------|  /|    
B|-----------------------------------------------------| / |    \  /
G|-----------------------------------------------------|/__|_    \/
D|-----------------------------------------------------|   |     /\
A|-----00000000000h5h6h7h8p0000000000000h5h6h7h8p------|   |    /  \
E|-----------------------------------------------------|

e|----------------------------------------------------------------------|
B|--10h9h8h7p9h8h7h6p8h7h6h5p7h6h5h4p6h5h4h3p5h4h3h2p4h3h2h1p3h2h1h0....|
G|----------------------------------------------------------------------|
D|----------------------------------------------------------------------|
A|----------------------------------------------------------------------|
E|----------------------------------------------------------------------|
Related for Poison tab