Song name
# A B C D E F G H I J K L M N O P Q R S T U V W X Y Z

Endeverafter - Poison tab

this is only a fraction of the solo starting at 2:33 and ending at 2:44
e:--10--8--10------10------10----------------------------|
b:-------------11------10------8-------------------------|
g:------------------------------------[2 times]----------| 
d:-------------------------------------------------------|
A:-------------------------------------------------------|
E:-------------------------------------------------------|

e:--11--10--11------11------11---------------------------|
b:--------------13------11------10-----------------------|
g:------------------------------------[2 times]----------| 
d:-------------------------------------------------------|
A:-------------------------------------------------------|
E:-------------------------------------------------------|

e:--8--6--8------8-----8---------------------------------|
b:-----------10-----8-----6------------------------------|
g:------------------------------------[2 times]----------| 
d:-------------------------------------------------------|
A:-------------------------------------------------------|
E:-------------------------------------------------------|

e:--13--11--13------13------13---------------------------|
b:--------------15------13------11-----------------------|
g:------------------------------------[2 times]----------| 
d:-------------------------------------------------------|
A:-------------------------------------------------------|
E:-------------------------------------------------------|

e:--6--5--6-----6-----6----------------------------------|
b:-----------8-----6-----4-------------------------------|
g:------------------------------------[2 times]----------| 
d:-------------------------------------------------------|
A:-------------------------------------------------------|
E:-------------------------------------------------------|

e:--8--6--8------8-----8---------------------------------|
b:-----------10-----8-----6------------------------------|
g:------------------------------------[2 times]----------| 
d:-------------------------------------------------------|
A:-------------------------------------------------------|
E:-------------------------------------------------------|

i've been trying forever to learn these songs   
if anybody has a better way to play it or more of the solo for this song or other songs 
PLEASE let me know I hope this will help people out
Tap to rate this tab
# A B C D E F G H I J K L M N O P Q R S T U V W X Y Z