Song name
# A B C D E F G H I J K L M N O P Q R S T U V W X Y Z

Endeverafter - Road To Destruction tab

--------------------------------------------------
Road To Destruction as made famous by EndeverafteR
--------------------------------------------------
Tuning: Standard
Email: wes-j.guitar@hotmail.com


Intro
|-----------------------------------------|
|-----------------------------------------|
|--12p0-0-12p0-0-12p0-0-12p0-0-14p0-15p0--|
|-----------------------------------------|
|-----------------------------------------|
|-----------------------------------------|

Lead stuff (over intro)
|------------------|
|------------------|
|------------------|
|------------------|
|----------/6~--3--|
|--3~--------------|(repeat)

Then it goes
|--------------------------|
|--------------------------|
|--------------------------|
|--------------------------|
|--xx5-5-3-5\-----xx5-3-5--|
|--xx3-3-1-3\-----xx3-1-3--|x2

At this point the 'intro' riff in the backround changes but i cant make it out what-so ever.

Tap to rate this tab
# A B C D E F G H I J K L M N O P Q R S T U V W X Y Z