Song name
# A B C D E F G H I J K L M N O P Q R S T U V W X Y Z

Endeverafter - No More Words tab

Artist: EndeverafteR / Jim Johnston
Song: No More Words
Album: WWE The Music Volume 8
Tabbed by:L. Yarib

Bass
(Bajo)
|-----------------| x8
|-----------------|
|-----------------|
|-xxx-x-x-x-4-2-1-|

In the 5° moment play this
(En la 5° vez tocas esto)
|---2~---|
|---2~---|
|---2~---|
|--------|
|--------|
|--------|

Intro
(Inicio)
|-------------------------------------|
|-------------------------------------|
|-------------------------------------|  x4
|--1-1----------11/13-13-----1--7-6-4-|
|--2-2----------11/13-13-----2--7-6-4-|
|--0-0-3-0-3-0--10/11-11---3-0--5-4-2-|

Verse
(Verso)
|----------------------------|
|--------------4~------------|
|----------------------------| x3
|-1-1-4-1-4-1----1-4-1-7-6-4-|
|----------------------------|
|----------------------------|

|------------------------------|
|--------------4~--------------|
|------------------------------|
|-1-1-4-1-4-1----1-4-1-4-7-6-4-|
|------------------------------|
|------------------------------|

PreChorus
(PreCoro)
|-----------------------------------------------------------------|
|----------------------4~-----------------------------------------|
|-----------------------------------------------------------------|
|-8--6-6--1-1-4-1-4-1------1-4-1-4-7-6-4---8-6-6----8-8--8-8--8-8-|
|-8--6-6-----------------------------------8-6-6----8-8--8-8--8-8-|
|-6--4-4-----------------------------------6-4-4----6-6--6-6--6-6-|

Chorus
(Coro)
|-----6-4--6-4-----9-6--6-4-----6-4--6-4-----9-6--9-6-|
|-----------------------------------------------------|
|-----------------------------------------------------|
|-----------------------------------------------------|
|--2------------2------------2------------2-----------|
|--0------------0------------0------------0-----------|

|----9-6--9-6-----9-6--9-6-----------------------------|
|------------------------------------------------------|
|------------------------------------------------------|
|--------------------------8-8-8-7-8-8-8-7-8-8-8-7-8-6-|
|-2------------2-----------8-8-8-7-8-8-8-7-8-8-8-7-8-6-|
|-0------------0-----------6-6-6-5-6-6-6-5-6-6-6-5-6-4-|

|-----6-4--9-6-----9-6--9-6-----9-6--9-6-----9-6--9-6-|
|-----------------------------------------------------|
|-----------------------------------------------------|
|-----------------------------------------------------|
|--2------------2------------2------------2-----------|
|--0------------0------------0------------0-----------|

|----9-6--9-6-----6-4--6-4-----------------------------|
|------------------------------------------------------|
|------------------------------------------------------|
|--------------------------8-8-8-7-8-8-8-7-8-8-8-7-8-6-|
|-2------------2-----------8-8-8-7-8-8-8-7-8-8-8-7-8-6-|
|-0------------0-----------6-6-6-5-6-6-6-5-6-6-6-5-6-4-|

Interlude
(Intermedio)
|--5~---6-4-6-4-6-4-6-4-3-1-0-10~-9-7-5~-|
|--5~------------------------------------|
|----------------------------------------|
|----------------------------------------|
|----------------------------------------|
|----------------------------------------|

Verse Again
(Verso)

PreChorus(At the end Pick the Scrape on the 4° & 5°)
(PreCoro,al final pasas la púa en la 4° y 5° cuerda)

Chorus
(Coro)
|-----6-4--6-4-----6-4--9-6-----6-4--9-6-----6-4--6-4-|
|-----------------------------------------------------|
|-----------------------------------------------------|
|-----------------------------------------------------|
|--2------------2------------2------------2-----------|
|--0------------0------------0------------0-----------|

|----9-6--9-6-----6-4--9-6-----------------------------|
|------------------------------------------------------|
|------------------------------------------------------|
|--------------------------8-8-8-7-8-8-8-7-8-8-8-7-8-6-|
|-2------------2-----------8-8-8-7-8-8-8-7-8-8-8-7-8-6-|
|-0------------0-----------6-6-6-5-6-6-6-5-6-6-6-5-6-4-|

|-----6-4--6-4-----6-4--6-4-----6-4--9-6-----6-4--9-6-|
|-----------------------------------------------------|
|-----------------------------------------------------|
|-----------------------------------------------------|
|--2------------2------------2------------2-----------|
|--0------------0------------0------------0-----------|

|----6-4--9-6-----6-4--9-6-----------------------------|
|------------------------------------------------------|
|----------------------------------------------------8-|
|--------------------------8-8-8-7-8-8-8-7-8-8-8-7-8-8-|
|-2------------2-----------8-8-8-7-8-8-8-7-8-8-8-7-8-6-|
|-0------------0-----------6-6-6-5-6-6-6-5-6-6-6-5-6---|

Interlude
(Intermedio)
|----------------------------|
|----------------------------|
|--------------------------8-|
|--8-8-8-7-8-8-7-8-8-8-7-8-8-|
|--8-8-8-7-8-8-7-8-8-8-7-8-6-|
|--6-6-6-5-6-6-5-6-6-6-5-6---|

|---------------------|
|---------------------|
|---------------------| x4
|---------------------|
|--8-8--7-8-8--8-8--8-|
|--6-6--5-6-6--6-6--6-|


|-----------|
|-----------|
|-----------| x2
|-----------|
|--8-8-8-7--|
|--6-6-6-5--|

|---|
|---|
|---|
|-8-|
|-8-|
|-6-|

Solo ( For this part send me an email,read at final of the tab )
                                       S  S  S S
|--10b-10b-10b-9-10(11)10(11)10(11)10--10-9--7-5-|
|------------------------------------------------|
|------------------------------------------------|
|------------------------------------------------|
|------------------------------------------------|
|------------------------------------------------|

|-15b-16(18)16-16-14-12---------------------------|
|------------------------15-14-12----------14h15b-|
|---------------------------------12-10-9---------|
|-------------------------------------------------|
|-------------------------------------------------|
|-------------------------------------------------|

|--------------------------------------------------------------------------|
|--17-15-13----------------------------------------------------------------|
|-----------15-13-12-------------------------15-14-12----------------------|
|--------------------18-16-14-14h17p14h17p14----------17-15-14-------------|
|--------------------------------------------------------------14-12-10-9--|
|--------------------------------------------------------------------------|

|--------------------------------------------------------------|
|-------------------------------------------8-10-12-12-13-15b--|
|----------------------------------12-13-15--------------------|
|----------------12-14-15-14-15-17-----------------------------|
|-------12-13-15-----------------------------------------------|
|-13-15--------------------------------------------------------|

|--12~-19~-19~-19~-20b-10b-20b-10(11)10~(11)10b--|
|------------------------------------------------|
|------------------------------------------------|
|------------------------------------------------|
|------------------------------------------------|
|------------------------------------------------|

|-----------------------------------------------------------------10(11)10-|
|-----------------9-10(11)10(11)10-10(11)10--10(11)10(11)10(11)10----------|
|---------9-10-12----------------------------------------------------------|
|-8-10-12------------------------------------------------------------------|
|--------------------------------------------------------------------------|
|--------------------------------------------------------------------------|

Chorus
(Coro)
|-----6-4--6-4-----6-4--6-4-----6-4--9-6-----9-6--9-6-|
|-----------------------------------------------------|
|-----------------------------------------------------|
|-----------------------------------------------------|
|--2------------2------------2------------2-----------|
|--0------------0------------0------------0-----------|

|----9-6--9-6-----9-6--9-6-----------------------------|
|------------------------------------------------------|
|------------------------------------------------------|
|--------------------------8-8-8-7-8-8-8-7-8-8-8-7-8-6-|
|-2------------2-----------8-8-8-7-8-8-8-7-8-8-8-7-8-6-|
|-0------------0-----------6-6-6-5-6-6-6-5-6-6-6-5-6-4-|

|-----6-4--9-6-----6-4--9-6-----6-4--9-6-----6-4--9-6-|
|-----------------------------------------------------|
|-----------------------------------------------------|
|-----------------------------------------------------|
|--2------------2------------2------------2-----------|
|--0------------0------------0------------0-----------|

|----6-4--6-4-----9-6--6-4-----------------------------|
|------------------------------------------------------|
|----------------------------------------------------8-|
|--------------------------8-8-8-7-8-8-8-7-8-8-8-7-8-8-|
|-2------------2-----------8-8-8-7-8-8-8-7-8-8-8-7-8-6-|
|-0------------0-----------6-6-6-5-6-6-6-5-6-6-6-5-6---|

Special Chorus x2
(Coro Especial)
|-----6-6-4--9-8-6-4----6-6-4--9-8-6-4----6-6-4--9-8-6-4----6-6-4--9-8-6-4-|
|--------------------------------------------------------------------------|
|--------------------------------------------------------------------------|
|--------------------------------------------------------------------------|
|--2------------------2-----------------2-----------------2----------------|
|--0------------------0-----------------0-----------------0----------------|

|----6-6-4--9-8-6-4-----6-6-4--9-8-6-4------------------------------|
|-------------------------------------------------------------------|
|-----------------------------------------------------------------8-|
|---------------------------------------8-8-8-7-8-8-8-7-8-8-8-7-8-8-|
|-2------------------2------------------8-8-8-7-8-8-8-7-8-8-8-7-8-6-|
|-0------------------0------------------6-6-6-5-6-6-6-5-6-6-6-5-6---|

Outro
(Final)
|----------------------------|
|----------------------------|
|--------------------------8-| x2
|--8-8-8-7-8-8-7-8-8-8-7-8-8-|
|--8-8-8-7-8-8-7-8-8-8-7-8-6-|
|--6-6-6-5-6-6-5-6-6-6-5-6---|

|----------------------------------------|
|----------------------------------------|
|-------------------------------------11-| x2
|-11-11-11-10-11-11-10-11-11-11-10-11-11-|
|-11-11-11-10-11-11-10-11-11-11-10-11--9-|
|--9--9--9--8--9--9--8--9--9--9--8--9----|

|----------|
|----------|
|---6~\----|
|---6~\----|
|---4~\----|
|----------|


For more information send me a message to:
(Para más información envía un mensaje a:)

yarib75@hotmail.com

or to
(o a)

demon_of_heaven_tabris_yarib@hotmail.com

Thanks for your atention,practice everyday,yeah!
(Gracias por su atención,practica diario,¡yeah!)
Tap to rate this tab
 
# A B C D E F G H I J K L M N O P Q R S T U V W X Y Z