Song name
# A B C D E F G H I J K L M N O P Q R S T U V W X Y Z

Ennio Morricone - Il Triello tab

Il Triello (The Trio) from The Good The Bad & The Ugly
Tabbed by ScreamOfSilence


e|---------------------|
B|---------------------|play it 12 times
G|---------------------|
D|--------2-3-0--------|
A|----0----------------|
E|---------------------|

e|---------------|
B|---------------|then play this in the final
G|---------------|
D|--------0~-----|
A|----0----------|
E|---------------|

e|--------------------|play it 12 times
B|--------------------|
G|--------------------|
D|--------2-3-0-------|
A|----0---------------|
E|--------------------|

e|---------------|
B|---------------|then play this in the final
G|---------------|
D|--------0~-----|
A|----0----------|
E|---------------|

e|---------------|play it 12 times
B|---------------|
G|---0-2---------|
D|---------3-----|
A|-3-------------|
E|---------------|

e|---------------|
B|---------------|then play this in the final
G|---------------|
D|--------0~-----|
A|----3----------|
E|---------------|

e|----------------|
B|----------------|play it 12 times
G|----------------|
D|---0-2----------|
A|---------3------|
E|-3--------------|

e|----------------------------|then play this in the final
B|----------------------------|
G|----------------------------|
D|----------------------------|
A|-----0------0-0-0---0--0~---|
E|--3-------------------------|


e|--------------------|
B|--------------------|play it 11 times
G|-----2-4-0----------|
D|--0-----------------|
A|--------------------|
E|--------------------|

e|---------------------|then play this in the final
B|---------------------|
G|---------------------|
D|-0-------0~----------|
A|----5----------------|
E|---------------------|

e|---------------------|
B|----------3----------|play it 12 times
G|------5-------3------|
D|-3-------------------|
A|---------------------|
E|---------------------|


e|----------------------------------------|
B|-----------------------------2----------|then play this in the final
G|-----------------------------2----------|
D|-3---------------------2-----2----------|
A|--------0~--------0----------0----------|
E|----------------------------------------|

Enjoy!!!!
Tap to rate this tab
 
# A B C D E F G H I J K L M N O P Q R S T U V W X Y Z