Song name
# A B C D E F G H I J K L M N O P Q R S T U V W X Y Z

Ennio Morricone - Sister Saras Theme tab

Dm, A, A7, Dm - C7, F, E7, A - A7, Dm, A, A7, Dm
x2



E|-----1-------1-------0-------0-------3-------3-------1-------1--------|
B|---3---3---3---3---2---2---2---2---2---2---2---2---3---3---3---3------|
G|-2-------2-------2-------2-------2-------2-------2-------2-------2----|
D|-0-------0---------------------------------------0-------0------------|
A|-----------------0-------0-------0-------0----------------------------|
E|----------------------------------------------------------------------|


E|-----0-------0-------1-------1-------0-------0-------0-------0--------|
B|---1---1---1---1---1---1---1---1---3---3---3---3---2---2---2---2------|
G|-3-------3-------2-------2-------1-------1-------2-------2------------|
D|-----------------3-------3-------2-------2----------------------------|
A|-3-------3---------------------------------------0-------0------------|
E|----------------------------------------------------------------------|


E|-----3-------3-------1-------1-------0-------3---------1~-------------|
B|---2---2---2---2---3---3---3---3---2---2---2---2-----3----------------|
G|-2-------2-------2-------2-------2-------2---------2------------------|
D|-----------------0-------0-----------------------0--------------------|
A|-0-------0-----------------------0-------0----------------------------|
E|----------------------------------------------------------------------|


E|-----1-------1-------0-------0-------3-------3-------1-------1--------|
B|---3---3---3---3---2---2---2---2---2---2---2---2---3---3---3---3------|
G|-2-------2-------2-------2-------2-------2-------2-------2-------2----|
D|-0-------0---------------------------------------0-------0------------|
A|-----------------0-------0-------0-------0----------------------------|
E|----------------------------------------------------------------------|


E|-----0-------0-------1-------1-------0-------0-------0-------0--------|
B|---1---1---1---1---1---1---1---1---3---3---3---3---2---2---2---2------|
G|-3-------3-------2-------2-------1-------1-------2-------2------------|
D|-----------------3-------3-------2-------2----------------------------|
A|-3-------3---------------------------------------0-------0------------|
E|----------------------------------------------------------------------|


E|-----3-------3-------1-------1-------0-------3---------1~-------------|
B|---2---2---2---2---3---3---3---3---2---2---2---2-----3----------------|
G|-2-------2-------2-------2-------2-------2---------2------------------|
D|-----------------0-------0-----------------------0--------------------|
A|-0-------0-----------------------0-------0----------------------------|
E|----------------------------------------------------------------------|

That's it.
Tap to rate this tab
# A B C D E F G H I J K L M N O P Q R S T U V W X Y Z