Song name
# A B C D E F G H I J K L M N O P Q R S T U V W X Y Z

Escape The Fate - Let It Go tab

Learned by ear :D 
tell me what you think (:  josse.jossee@hotmail.com

Let It Go

INTRO
-------------------------------------------------------------------------|
-------------------------------------------------------------------------|
--9--9--10--7777777--7--7--9--5555555--5--5--7--5559999--4--4--4-4/7777--|
--x--x--x---xxxxxxx--x--x--x--xxxxxxx--x--x--x--xxxxxxx--x--x--x-x/xxxx--|
--7--7--8---5555555--5--5--7--3333333--3--3--5--3337777--2--2--2-2/5555--|
-------------------------------------------------------------------------|


----------------------------------------------------------------------------|
----------------------------------------------------------------------------|
--9--9--10--7777777--7--10-9--1010109999--5--5--7--5559999--4--4--4-4/7777--|
--x--x--x---xxxxxxx--x--x--x--x-x-x-xxxx--x--x--x--xxxxxxx--x--x--x-x/xxxx--|
--7--7--8---5555555--5--8--7--8-8-8-7777--3--3--5--3337777--2--2--2-2/5555--|
----------------------------------------------------------------------------|
Tap to rate this tab
# A B C D E F G H I J K L M N O P Q R S T U V W X Y Z