Song name
# A B C D E F G H I J K L M N O P Q R S T U V W X Y Z

Eye Empire - Victim tab

Eye Empire: Victim

Transcribed by: mysticguitar77

YouTube Channel: MysticGuitar77

Date last modified: January 17, 2014

Official band website: http://www.eyeempire.com

Tuning: Drop C (C,G,C,F,A,D)

Riff 1   "Flip the switch, start the machine..."
D|-----------------------------------------------------------------|
A|-----------------------------------------------------------------|
F|-----------------------------------------------------------------|
C|-----------------------------------------------------------------|
G|---------------------------------6-6-6-6-2-2-2-2-----------------|
C|-3p0-0-0-0-0-0-0-0-0-0-0-0-0-0-0-----------------5-5-5-5-4-4-4-4-|

Play Riff 1 x2   "Take away the lies that feed..."

Riff 2   "You better take the reigns, police yourself..."
D|-------------------------------------------------------------|
A|-------------------------------------------------------------|
F|-------------------------------------------------------------|
C|-------------------------------1--1-1-1-1-1-1-3--3-3-3-3-3-3-|
G|-------------------------------1--1-1-1-1-1-1-3--3-3-3-3-3-3-|
C|-3p0-0-0-0-0-0-0-0-0-0-0-0-0-0-1--1-1-1-1-1-1-3--3-3-3-3-3-3-|

D|---------------------------------------------------------------|
A|---------------------------------------------------------------|
F|---------------------------------------------------------------|
C|---------------------------------------------------------------|
G|-------------------------------6-6-6-6-2-2-2-2-----------------|
C|-1p0-0-0-0-0-0-0-0-0-0-0-0-0-0-----------------5-5-5-5-4-4-4-4-|

Riff 3   "Now you know..."
D|---------------------------------------------------------|
A|---------------------------------------------------------|
F|---------------------------------------------------------|
C|----------------------------3-3-3--3-3-3--3-3-3--3-3-3-3-|
G|----------------------------1-1-1--1-1-1--1-1-1--1-1-1-1-|
C|-3p0-0--0-0-0--0-0-0--0-0-0-1-1-1--1-1-1--1-1-1--1-1-1-1-|

D|----------------------------------------------|
A|----------------------------------------------|
F|----------------------------------------------|
C|-5-5-5-5-5-5-5-5-5-5-5-5-5-5-5-5-8--8-7\-3-5\-|
G|-5-5-5-5-5-5-5-5-5-5-5-5-5-5-5-5-8--8-7\-3-5\-|
C|-5-5-5-5-5-5-5-5-5-5-5-5-5-5-5-5-8--8-7\-3-5\-|

Riff 4   "Push it through your hollow head..."
D|-----------------------------------------------------------------|
A|-----------------------------------------------------------------|
F|-7-7-7-7-7-7-7-7-7-7-7-7-7-7-7-7-----------------9-9-9-9-9-9-9-9-|
C|-7-7-7-7-7-7-7-7-7-7-7-7-7-7-7-7-7-7-7-7-7-7-7-7-7-7-7-7-7-7-7-7-|
G|-5-5-5-5-5-5-5-5-5-5-5-5-5-5-5-5-7-7-7-7-7-7-7-7-7-7-7-7-7-7-7-7-|
C|-0-0-0-0-0-0-0-0-0-0-0-0-0-0-0-0-7-7-7-7-7-7-7-7-7-7-7-7-7-7-7-7-|

D|-----------------------------------------------------------------|
A|-----------------------------------------------------------------|
F|-----------------------------------------------------------------|
C|-3-3-3-3-3-3-3-3-3-3-3-3-3-3-3-3-5-5-5-5-5-5-5-5-4-4-4-4-4-4-4-4-|
G|-3-3-3-3-3-3-3-3-3-3-3-3-3-3-3-3-5-5-5-5-5-5-5-5-5-5-5-5-5-5-5-5-|
C|-3-3-3-3-3-3-3-3-3-3-3-3-3-3-3-3-5-5-5-5-5-5-5-5-4-4-4-4-4-4-4-4-|

D|-----------------------------------------------------------------|
A|-----------------------------------------------------------------|
F|-7-7-7-7-7-7-7-7-7-7-7-7-7-7-7-7-----------------9-9-9-9-9-9-9-9-|
C|-7-7-7-7-7-7-7-7-7-7-7-7-7-7-7-7-7-7-7-7-7-7-7-7-7-7-7-7-7-7-7-7-|
G|-5-5-5-5-5-5-5-5-5-5-5-5-5-5-5-5-7-7-7-7-7-7-7-7-7-7-7-7-7-7-7-7-|
C|-0-0-0-0-0-0-0-0-0-0-0-0-0-0-0-0-7-7-7-7-7-7-7-7-7-7-7-7-7-7-7-7-|

D|-----------------------------------------------------------------|
A|-----------------------------------------------------------------|
F|-----------------------------------------------------------------|
C|-8-8-8-8-8-8-8-8-8-8-8-8-8-8-8-8-3-3-3-3-3-3-3-3-4-4-4-4-1-1-1-1-|
G|-8-8-8-8-8-8-8-8-8-8-8-8-8-8-8-8-3-3-3-3-3-3-3-3-5-5-5-5-1-1-1-1-|
C|-8-8-8-8-8-8-8-8-8-8-8-8-8-8-8-8-3-3-3-3-3-3-3-3-4-4-4-4-1-1-1-1-|

Fill 1
D|------------------------------------------------|
A|------------------------------------------------|
F|---------------------------------8\-4-----------|
C|---------------------------------8\-4--5--4-----|
G|---------------------------------6\-2--5--4-----|
C|-1p0-0-0-0-0-0-0-0-0-0-0-0-0-0-0-------5--4--1b-|

Riff 5   "Burning down the last empire..."
D|-------------------------------------------------------------|
A|-------------------------------------------------------------|
F|-------------------------------------------------------------|
C|-------------------------------1--1-1-1-1-1-1-3--3-3-3-3-3-3-|
G|-------------------------------1--1-1-1-1-1-1-3--3-3-3-3-3-3-|
C|-1p0-0-0-0-0-0-0-0-0-0-0-0-0-0-1--1-1-1-1-1-1-3--3-3-3-3-3-3-|

D|------------------------------------------------------------|
A|------------------------------------------------------------|
F|------------------------------------------------------------|
C|-------------------------------1--1-1-1-1-1-1-4--4-4-3--3-3-|
G|-------------------------------1--1-1-1-1-1-1-5--5-5-3--3-3-|
C|-1p0-0-0-0-0-0-0-0-0-0-0-0-0-0-1--1-1-1-1-1-1-4--4-4-3--3-3-|

D|-------------------------------------------------------------|
A|-------------------------------------------------------------|
F|-------------------------------------------------------------|
C|-------------------------------1--1-1-1-1-1-1-3--3-3-3-3-3-3-|
G|-------------------------------1--1-1-1-1-1-1-3--3-3-3-3-3-3-|
C|-1p0-0-0-0-0-0-0-0-0-0-0-0-0-0-1--1-1-1-1-1-1-3--3-3-3-3-3-3-|

D|----------------------------------------------------------------|
A|----------------------------------------------------------------|
F|----------------------------------------------------------------|
C|----------------------------------------------------------------|
G|--------------------------------6-6-6-6-2-2-2-2-----------------|
C|-1b-0-0-0-0-0-0-0-0-0-0-0-0-0-0-----------------5-5-5-5-4-4-4-4-|
      * * * * * * *

Play Riff 3 x1   "Now you know..."
Play Riff 4 x1   "Push it through your hollow head..."

Riff 6
D|-----------------------------------------------------------|
A|-----------------------------------------------------------|
F|-----------------------------------------------------------|
C|-----------------------------------------------------------|
G|-----------------------------------------------------------|
C|-1b-0-0--0-0-0--0-0-0--0-0-0-1b-0-0--0-0-0--0-0-0--0-0-0-0-|

D|-------------------------|
A|-------------------------|
F|-------------------------|
C|-3--3-5--x-2--2-0--------|
G|-3--3-5--x-2--2-0--------|
C|-3--3-5--x-2--2-0--0-5-7-|

Riff 7 (solo rhythm)
D|--------------------------------------------------------------------------|
A|--------------------------------------------------------------------------|
F|--------------------------------------------------------------------------|
C|--------------------------------------------------------------------------|
G|--------------------------------------------------------------------------|
C|-8-8-8-8-8-8-8-8-8-8-8-8-8-8-8-8-10-10-10-10-10-10-10-10-10-10-10-10-10-10|

D|------------------------------------------------------------|
A|------------------------------------------------------------|
F|------------------------------------------------------------|
C|------------------------------------------------------------|
G|------------------------------------------------------------|
C|-1b-0-0--0-0-0--0-0-0--00000001b-0-0--0-0-0--0-0-0--0-0-0-0-|
                         *******

D|--------------------------------------------------------------------------|
A|--------------------------------------------------------------------------|
F|--------------------------------------------------------------------------|
C|--------------------------------------------------------------------------|
G|--------------------------------------------------------------------------|
C|-8-8-8-8-8-8-8-8-8-8-8-8-8-8-8-8-10-10-10-10-10-10-10-10-10-10-10-10-10-10|

D|-----------------------------------------------------------------|
A|-----------------------------------------------------------------|
F|-----------------------------------------------------------------|
C|-3-3-3-3-3-3-3-3-3-3-3-3-3-3-3-3-4-4-4-4-4-4-4-4-1-1-1-1-1-1-1-1-|
G|-3-3-3-3-3-3-3-3-3-3-3-3-3-3-3-3-5-5-5-5-5-5-5-5-1-1-1-1-1-1-1-1-|
C|-3-3-3-3-3-3-3-3-3-3-3-3-3-3-3-3-4-4-4-4-4-4-4-4-1-1-1-1-1-1-1-1-|

Fill 2    "Victim of the system..."
D|-----------------------------------------------------------------|
A|-----------------------------------------------------------------|
F|-----------------------------------------------------------------|
C|-3-3-3-3-3-3-3-3-3-3-3-3-3-3-3-3-5-5-5-5-5-5-5-5-4-4-4-4-4-4-4-4-|
G|-3-3-3-3-3-3-3-3-3-3-3-3-3-3-3-3-5-5-5-5-5-5-5-5-5-5-5-5-5-5-5-5-|
C|-3-3-3-3-3-3-3-3-3-3-3-3-3-3-3-3-5-5-5-5-5-5-5-5-4-4-4-4-4-4-4-4-|

Play Riff 4 x1   "Push it through your hollow head..."

Riff 8
D|------------------------------------------------------------|
A|------------------------------------------------------------|
F|------------------------------------------------------------|
C|------------------------------------------------------------|
G|------------------------------------------------------------|
C|-1b-0-0--0-0-0--0-0-0--00000001b-0-0--0-0-0--0-0-0--0000000-|
                         *******                      *******

D|----------------------------------------------------------|
A|----------------------------------------------------------|
F|----------------------------------------------------------|
C|----------------------------------------------------------|
G|----------------------------------------------------------|
C|-1b-0-0--0-0-0--0-0-0--00000001b-0-0--0-0-0--0000--000000-|
                         *******               ***   ******

Play Riff 8 x2

Ending
D|--------|
A|--------|
F|--------|
C|--------|
G|--------|
C|-1b-0-0-|

Enjoy!!
Tap to rate this tab
# A B C D E F G H I J K L M N O P Q R S T U V W X Y Z