Song name
# A B C D E F G H I J K L M N O P Q R S T U V W X Y Z

Eye Empire - Bleed tab

Eye Empire: Bleed

Transcribed by: mysticguitar77

YouTube Username: MysticGuitar77

Date last modified: January 16, 2014

Official band website: http://www.eyeempire.com/

Tuning: Drop A# (A#,F,A#,D#,G,C)

Riff 1
 C|-----------------------------------------------------------|
 G|-----------------------------------------------------------|
D#|-----------------------------------------------------------|
A#|--------------------------------------------8-8-8-8-8-8-8\-|
 F|-------------------------------5------------8-8-8-8-8-8-8\-|
A#|-2222-2--5-2-0-2-3-1--0-2-0-2----2-0-2-3-1--8-8-8-8-8-8-8\-|
    ****

 C|---------------------------------------------------------------|
 G|---------------------------------------------------------------|
D#|---------------------------------------------------------------|
A#|-------------------------------8-8-8-8-8-8-8-8-5-5-5-5-3-3-3-3-|
 F|-------------------------------8-8-8-8-8-8-8-8-5-5-5-5-3-3-3-3-|
A#|-2222-2--5-2-0-2-3-1--0-2-0-2--8-8-8-8-8-8-8-8-5-5-5-5-3-3-3-3-|
    ****

Play Riff 1 x2

Riff 2   "Eyes closed, the inner workings, new beginnings..."
 C|-----------------------------------------------------------------|
 G|-----------------------------------------------------------------|
D#|-----------------------------------------------------------------|
A#|-----------------------------------------------------------------|
 F|-2-2-2-2-222-5-5-5-5-5-5-5-5-5-5-0-0-0-0-000-8-8-8-8-8-8-5-5-5-5-|
A#|-2-2-2-2-222-5-5-5-5-5-5-5-5-5-5-0-0-0-0-000-8-8-8-8-8-8-5-5-5-5-|
    * * * * *** * * * * * * * * * * * * * * *** * * * * * * * * * *

 C|-----------------------------------------------------------------|
 G|-----------------------------------------------------------------|
D#|-----------------------------------------------------------------|
A#|-----------------------------------------------------------------|
 F|-2-2-2-2-222-5-5-5-5-5-5-5-5-5-5-0-0-0-0-0-0---------------------|
A#|-2-2-2-2-222-5-5-5-5-5-5-5-5-5-5-0-0-0-0-0-0-8-8-8-8-8-8-8-8-8-8-|
    * * * * *** * * * * * * * * * * * * * * * *

 C|-----------------------------------------------------------------|
 G|-----------------------------------------------------------------|
D#|-----------------------------------------------------------------|
A#|-----------------------------------------------------------------|
 F|-----------------------------------------------------------------|
A#|-2-2-2-2-2-2-5-5-5-5-5-5-5-5-5-5-0-0-0-0-0-0-8-8-8-8-8-8-5-5-5-5-|

 C|-----------------------------------------------------------------|
 G|-----------------------------------------------------------------|
D#|-----------------------------------------------------------------|
A#|-----------------------------------------------------------------|
 F|-----------------------------------------------------------------|
A#|-2-2-2-2-2-2-5-5-5-5-5-5-5-5-5-5-8-8-8-8-8-8-8-8-8-8-8-8-8-8-8-8-|

 C|----------------------------|
 G|----------------------------|
D#|----------------------------|
A#|----------------------------|
 F|----------------------------|
A#|-5-5-5-5-5-5-5-5-5-5-5-5-5\-|

Riff 3   "Bleed, now you know you wanna, see..."
 C|-----------------------------------------------|
 G|-----------------------------------------------|
D#|-----------------------------------------------|
A#|-----------------------------------------------|
 F|-----------------------------------------------|
A#|-5\-2-2--0-2-2--0-2-2-5\-2-2-2--0-2-2--0-2-2-0-|

 C|------------------------------------------------|
 G|------------------------------------------------|
D#|---------------------------------------------5*-|
A#|-------------------------5--5-5-x-x-8\-5-5-7----|
 F|-------------------------5--5-5-x-x-8\-5-5-7----|
A#|-5\-2-2--0-2-2--0-2-2-0--5--5-5-x-x-8\-5-5-7----|

Play Riff 3 x2   "See, now you know you wanna bleed..."
Play Riff 1 x1
Play Riff 2 x1   "Restrain, the weakest thought, empty complaint..."
Play Riff 3 x2   "Bleed, now you know you wanna, see..."

Riff 4 (solo rhythm)
 C|---------------------------------------------------------------|
 G|---------------------------------------------------------------|
D#|---------------------------------------------------------------|
A#|---------------------------------------------------------------|
 F|-----------------------------------------------5h7p5---5-------|
A#|-0-2-2-0-2-0-2-5--0-2-0-2-3-1--0-2-2-0-2-0-2-0-------8---8-7-5-|

 C|--------------------------------------------------------------|
 G|--------------------------------------------------------------|
D#|--------------------------------------------------------------|
A#|--------------------------------------------------------------|
 F|-------------------------------5h7p5---5----------------------|
A#|-0-2-2-0-2-0-2-5--0-2-0-2-3-1--------8---8-7-5-/8-0-7-0-5-7-5-|

Play Riff 4 x2
Play Riff 3 x4   "Bleed, now you know you wanna, see..."
                  (the ending little bit gets played twice the
                   last time through and let the harmonic ring out)

Enjoy!!
Tap to rate this tab
# A B C D E F G H I J K L M N O P Q R S T U V W X Y Z