Song name
# A B C D E F G H I J K L M N O P Q R S T U V W X Y Z

Eye Empire - One Day tab

Eye Empire: One Day

Transcribed by: mysticguitar77

YouTube Channel: MysticGuitar77

Date last modified: February 3, 2014

Tuning: Drop B (B,F#,B,E,G#,C#)

Riff 1
C#|---------------------------------------------------------|
G#|---------------------------------------------------------|
 E|---------------------------------------------------------|
 B|-----------------------2b--------------------------------|
F#|---------------------------------------------------------|
 B|-2-2-2-2-2-2-2-2-0h2h3----0--2-2-2-2-2-2-2-2-2-2-0-0-0-0-|

C#|------------------------------------------------------------|
G#|------------------------------------------------------------|
 E|------------------------------------------------------------|
 B|-----------------------2b-----------------------------------|
F#|------------------------------------------------------------|
 B|-2-2-2-2-2-2-2-2-0h2h3----0-5-5-5-5-5-5-5-5-3-3-3-3-3-3-3-3-|

Play Riff 1 x2

Riff 2   "It's do or die you realize there's nothing left to say..."
C#|-----------------------------------------------------------------|
G#|-----------------------------------------------------------------|
 E|-----------------------------------------------------------------|
 B|-------------------------------2b--------------------------------|
F#|-----------------------------------------------------------------|
 B|-5*-<-2*-2-2-2-2-2-2-2-2-0h2h3----0--2-2-2-2-2-2-2-2-2-2-0-0-0-0-|

C#|-----------------------------------------------------------------|
G#|-----------------------------------------------------------------|
 E|-----------------------------------------------------------------|
 B|-------------------------------2b--------------------------------|
F#|-----------------------------------------------------------------|
 B|-2*->-5*-2-2-2-2-2-2-2-2-0h2h3----0--2-2-2-2-2-2-2-2-2-2-0-0-0-0-|

C#|--------------------------------------------------------------|
G#|--------------------------------------------------------------|
 E|--------------------------------------------------------------|
 B|--------------------------------------------------------------|
F#|--------------------------------------------------------------|
 B|-5*-<-2*->-5*-10-10-10-10-10-10-10-10-10-10-10-10-10-10-10-10-|

C#|----------------------------|
G#|----------------------------|
 E|----------------------------|
 B|----------------------------|
F#|----------------------------|
 B|-8-8-8-8-8-8-8-8-8-8-8-8-8\-|

Riff 2 note: Impossible to tab this harmonic bit without it looking like
             a mess. Basically what you do is start at the 5th fret
             natural harmonic and slowly work your way down the fret board
             constantly strumming while hitting the natural harmonics all
             the way down, similar to how you play "Mudshovel" by Staind. 
             The second time, start at around the 2nd fret natural harmonic
             and work your way up to the 5th fret harmonic. The last time
             I'll let you figure it out on your own, if you listen to
             the song, it'll make sense.

Riff 3   "I'll have my say one day..."
C#|--------------------------------------------|
G#|--------------------------------------------|
 E|--------------------------------------------|
 B|-2-2--0-0--2--8\----------------------------|
F#|-2-2--0-0--2--8\----------------------------|
 B|-2-2--0-0--2--8\--2-2-2-2-0-8-8-8-8-5-5-5-5-|

C#|--------------------------------------------------|
G#|--------------------------------------------------|
 E|--------------------------------------------------|
 B|-2-2--0-0--2--8\----------------------------------|
F#|-2-2--0-0--2--8\----------------------------------|
 B|-2-2--0-0--2--8\--5-5-5-5-5-5-5-5-3-3-3-3-3-3-3-3-|

C#|--------------------------------------------|
G#|--------------------------------------------|
 E|--------------------------------------------|
 B|-2-2--0-0--2--8\----------------------------|
F#|-2-2--0-0--2--8\----------------------------|
 B|-2-2--0-0--2--8\--2-2-2-2-0-8-8-8-8-7-7-7-7-|

C#|-----------------------------------------------------------------|
G#|-----------------------------------------------------------------|
 E|-----------------------------------------------------------------|
 B|-------------------------------------------------3-3-3-3-3-3-3-3-|
F#|-------------------------------------------------3-3-3-3-3-3-3-3-|
 B|-5-5-5-5-5-5-5-5-5-5-5-5-5-5-5-5-3-3-3-3-3-3-3-3-3-3-3-3-3-3-3-3-|

Fill 1
C#|-----------------------|
G#|-----------------------|
 E|-----------------------|
 B|-2~---------0~---------|
F#|-2~---------0~---------|
 B|-2~---------0~---------|

Play Riff 1 x1
Play Riff 2 x1   "So patronizing in denying..."
Play Riff 3 x1   "I'll have my say one day..."

Riff 4   "You took my kindness for weakness again..."
C#|----------------------------------------|
G#|----------------------------------------|
 E|----------------------------------------|
 B|-2~---------0~--------2~----------------| x2
F#|-2~---------0~--------2~----------------|
 B|-2~---------0~--------2~---2-/-8~----5~-|

C#|--------------------------------------------------|
G#|--------------------------------------------------|
 E|--------------------------------------------------|
 B|--------------------------------------------------|
F#|--------------------------------------------------|
 B|-2~-2~-2~-2~-0~-0~-0~-0~-2~-2~-2~-2-/-8~-8~-5~-5~-|

C#|----------------------------------------|
G#|----------------------------------------|
 E|----------------------------------------|
 B|----------------------------------------|
F#|----------------------------------------|
 B|-2~-2~-2~-2~-0~-0~-0~-0~-8~-8~-8~-8~-8~-|

Riff 5 (solo rhythm)
C#|------------------------------------------|
G#|------------------------------------------|
 E|------------------------------------------|
 B|------------------------------------------|
F#|------------------------------------------|
 B|-02~-02-02-02-23202-02-02-3-3-3-3-0-0-0-0-|

C#|----------------------------------------------------|
G#|----------------------------------------------------|
 E|----------------------------------------------------|
 B|----------------------------------------------------|
F#|----------------------------------------------------|
 B|-0-2~-02-02-02-2320-5-5-5-5-5-5-5-5-0-0-0-0-0-0-0-0-|

Play Riff 5 x2

Riff 6
C#|-----------------------------------------------------------|
G#|-----------------------------------------------------------|
 E|-----------------------------------------------------------|
 B|--------------------------2-0--------------------------2-3-|
F#|--------------------------2-0--------------------------2-3-|
 B|-02022-20232-02025\-20232-2-0-02022-20232-02025\-20232-2-3-|

C#|-------------------------------------------|
G#|-------------------------------------------|
 E|-------------------------------------------|
 B|--------------------------2-0-2-0-2-0-2-3~-|
F#|--------------------------2-0-2-0-2-0-2-3~-|
 B|-02022-20232-02025\-20232-2-0-2-0-2-0-2-3~-|

Play Riff 3 x2   "I'll have my say one day..."

Riff 7 (ending) "Never again..."
C#|-------------------------------------------------------|
G#|-------------------------------------------------------|
 E|-------------------------------------------------------|
 B|---------------------------------------------------2-0-|
F#|---------------------------------------------------2-0-|
 B|-02022-20232-02025\-20232-02022-20232-02025\-20232-2-0-|

C#|-------------------------------------------------------|
G#|-------------------------------------------------------|
 E|-------------------------------------------------------|
 B|---------------------------------------------------2-3-|
F#|---------------------------------------------------2-3-|
 B|-02022-20232-02025\-20232-02022-20232-02025\-20232-2-3-|

C#|-----------------------------------------------------------------------|
G#|-----------------------------------------------------------------------|
 E|-----------------------------------------------------------------------|
 B|--------------------------2-0--------------------------2-0-2-0-2-0-2-3-|
F#|--------------------------2-0--------------------------2-0-2-0-2-0-2-3-|
 B|-02022-20232-02025\-20232-2-0-02022-20232-02025\-20232-2-0-2-0-2-0-2-3-|

Enjoy!!

Tap to rate this tab
# A B C D E F G H I J K L M N O P Q R S T U V W X Y Z