Song name
# A B C D E F G H I J K L M N O P Q R S T U V W X Y Z

Eye Empire - Angels And Demons tab

Eye Empire: Angels & Demons

Transcribed by: mysticguitar77

YouTube Channel: MysticGuitar77

Date last modified: February 7, 2014

Tuning: Drop B (B,F#,B,E,G#,C#)

Riff 1   "You see me suffer..."
C#|-------------------------------------------------|
G#|-------------------------------------------------|
 E|-6-6---6-6-6-9-9---9-9-9-------------------------|
 B|-6-6-x-6-6-6-9-9-x-9-9-9-------------------------|
F#|-4-4-x-4-4-4-7-7-x-7-7-7-------------------------|
 B|-4-4-x-4-4-4-7-7-x-7-7-7-0-0-x-0-0-0-0-0-x-0-0-0-|

Riff 2   "I'm being pulled under..."
C#|-------------------------------------------------------------|
G#|-------------------------------------------------------------|
 E|-6-6--6-6--6-6-6-6-9-9--9-9--9-9-9-9-------------------------|
 B|-6-6--6-6--6-6-6-6-9-9--9-9--9-9-9-9-------------------------|
F#|-4-4--4-4--4-4-4-4-7-7--7-7--7-7-7-7-------------------------|
 B|-4-4--4-4--4-4-4-4-7-7--7-7--7-7-7-7-0-0-x-0-0-0-0-0-x-0-0-0-|

C#|-------------------------------------------------------------|
G#|-------------------------------------------------------------|
 E|-6-6--6-6--6-6-6-6-------------------------------------------|
 B|-6-6--6-6--6-6-6-6-6-6--6-6--6-6-6-6-------------------------|
F#|-4-4--4-4--4-4-4-4-2-2--2-2--2-2-2-2-------------------------|
 B|-4-4--4-4--4-4-4-4-2-2--2-2--2-2-2-2-0-0-x-0-0-0-0-0-x-0-0-0-|

Play Riff 2 x2   "These waves wash over..."
                  (the open notes at the end are omitted 2nd time through)

Riff 3   "Can you be my angel..."
C#|--------------------------------------------|
G#|--------------------------------------------|
 E|-5-5-5-5-5-5--5-5-5-5-5--5-5-5-5-5--5-5-5-5-|
 B|-5-5-5-5-5-5--5-5-5-5-5--5-5-5-5-5--5-5-5-5-|
F#|-3-3-3-3-3-3--3-3-3-3-3--3-3-3-3-3--3-3-3-3-|
 B|--------------------------------------------|

C#|-------------------------------------------------|
G#|-------------------------------------------------|
 E|----------------------7-7-7--7/11-11-11-11-11-11-|
 B|-0-0-0-0-0-0--0-0-0-0-x-x-x--x-x--x--x--x--x--x--|
F#|-0-0-0-0-0-0--0-0-0-0-5-5-5--5/9--9--9--9--9--9--|
 B|-0-0-0-0-0-0--0-0-0-0-0-0-0--0-0--0--0--0--0--0--|

C#|--------------------------------------------|
G#|--------------------------------------------|
 E|-5-5-5-5-5-5--5-5-5-5-5--5-5-5-5-5--5-5-5-5-|
 B|-5-5-5-5-5-5--5-5-5-5-5--5-5-5-5-5--5-5-5-5-|
F#|-3-3-3-3-3-3--3-3-3-3-3--3-3-3-3-3--3-3-3-3-|
 B|--------------------------------------------|

C#|---------------------------------------|
G#|---------------------------------------|
 E|---------------------------------------|
 B|-0-0-0-0-0-0--0-0-0-0------------------|
F#|-0-0-0-0-0-0--0-0-0-0------------------|
 B|-0-0-0-0-0-0--0-0-0-0-0-4--4-4/7--7--7-|

C#|--------------------------------------------|
G#|--------------------------------------------|
 E|-5-5-5-5-5-5--5-5-5-5-5--5-5-5-5-5--5-5-5-5-|
 B|-5-5-5-5-5-5--5-5-5-5-5--5-5-5-5-5--5-5-5-5-|
F#|-3-3-3-3-3-3--3-3-3-3-3--3-3-3-3-3--3-3-3-3-|
 B|--------------------------------------------|

C#|-------------------------------------------------|
G#|-------------------------------------------------|
 E|----------------------7-7-7--7/11-11-11-11-11-11-|
 B|-0-0-0-0-0-0--0-0-0-0-x-x-x--x-x--x--x--x--x--x--|
F#|-0-0-0-0-0-0--0-0-0-0-5-5-5--5/9--9--9--9--9--9--|
 B|-0-0-0-0-0-0--0-0-0-0-0-0-0--0-0--0--0--0--0--0--|

C#|-------------------------|
G#|-------------------------|
 E|-------------------------|
 B|-------------------------| x2
F#|-------------------------|
 B|-8-8-8-8-8-8-8-8-8-8-8-8-|

C#|-------------------------------------|
G#|-------------------------------------|
 E|-------------------------------------|
 B|-10-10-10-10-10-10-10-10-10-10-10-10-| x2
F#|-10-10-10-10-10-10-10-10-10-10-10-10-|
 B|-10-10-10-10-10-10-10-10-10-10-10-10-|

Riff 4   "...my soul..."
C#|-------------------------------------------------------------|
G#|-------------------------------------------------------------|
 E|-------------------------------------------------------------|
 B|-------------------------------------------------------------|
F#|-------------------------------------------------------------|
 B|-0-0-x-0-0-0-0-0-x-0-0-0-0-0-x-0-0-0-3-3-3-1-1-1-4-4-4-3-3-3-|

Play Riff 1 x1   "You see me stumble..."
Play Riff 2 x2   "I fall right over..."
Play Riff 3 x1   "Can you be my angel..."
Play Riff 4 x2   "Don't let them take my soul..."

Riff 5 (solo rhythm)
C#|-------------------------------------------------------------|
G#|-------------------------------------------------------------|
 E|-------------------------------------------------------------|
 B|-8-8-8-8-8-8-8-8-8-8-8-8-10-10-10-10-10-10-10-10-10-10-10-10-|
F#|-8-8-8-8-8-8-8-8-8-8-8-8-10-10-10-10-10-10-10-10-10-10-10-10-|
 B|-8-8-8-8-8-8-8-8-8-8-8-8-10-10-10-10-10-10-10-10-10-10-10-10-|

C#|-------------------------------------------------------------------------|
G#|-------------------------------------------------------------------------|
 E|-------------------------------------------------------------------------|
 B|-------------------------8-8-8-8-8-8-8-8-8-8-8-8-5-5-5-5-5-5-5-5-5-5-5-5-|
F#|-------------------------8-8-8-8-8-8-8-8-8-8-8-8-5-5-5-5-5-5-5-5-5-5-5-5-|
 B|-0-0-x-0-0-0-0-0-x-0-0-0-8-8-8-8-8-8-8-8-8-8-8-8-5-5-5-5-5-5-5-5-5-5-5-5-|

C#|-------------------------------------|
G#|-------------------------------------|
 E|-------------7-7-7-7-7-7-7-7-7-7-7-7-|
 B|-------------x-x-x-x-x-x-x-x-x-x-x-x-|
F#|-------------5-5-5-5-5-5-5-5-5-5-5-5-|
 B|-0-0-x-0-0-0-0-0-0-0-0-0-0-0-0-0-0-0-|

C#|-------------------------------------------------------------|
G#|-------------------------------------------------------------|
 E|-------------------------------------------------------------|
 B|-8-8-8-8-8-8-8-8-8-8-8-8-10-10-10-10-10-10-10-10-10-10-10-10-|
F#|-8-8-8-8-8-8-8-8-8-8-8-8-10-10-10-10-10-10-10-10-10-10-10-10-|
 B|-8-8-8-8-8-8-8-8-8-8-8-8-10-10-10-10-10-10-10-10-10-10-10-10-|

C#|-------------------------------------------------|
G#|-------------------------------------------------|
 E|-------------------------------------------------|
 B|-8-8-8-8-8-8-8-8-8-8-8-8-5-5-5-5-5-5-3-3-3-3-3-3-|
F#|-8-8-8-8-8-8-8-8-8-8-8-8-5-5-5-5-5-5-3-3-3-3-3-3-|
 B|-8-8-8-8-8-8-8-8-8-8-8-8-5-5-5-5-5-5-3-3-3-3-3-3-|

Fill 1 (1 guitar plays the 1st half, another guitar plays the 2nd half)
C#|-------------------------|
G#|-------------------------|
 E|-------------------------|
 B|-------------------------|
F#|-------------------------|
 B|-0-0-x-0-0-0-0-0-x-0-0-0-|

Play Riff 3 x1   "Can you be my angel..."
Play Riff 4 x4   "Don't let them take my soul..."

Ending
C#|---------------------------|
G#|---------------------------|
 E|---------------------------|
 B|-------------------------0-|
F#|-------------------------0-|
 B|-3-3-3-1-1-1-4-4-4-3-3-3-0-|

Enjoy!!
Tap to rate this tab
 
# A B C D E F G H I J K L M N O P Q R S T U V W X Y Z