Song name
# A B C D E F G H I J K L M N O P Q R S T U V W X Y Z

Feeder - Buck Rogers tab

FEEDER - BUCK ROGERS

1.-0-0-0-0-0-0-0-0-4-4-4-4-5-5-5-5----------
2.------------------------------------------
3.------------------------------------------
4.------------------------------------------        (DO THIS 4 TIME'S)
5.------------------------------------------
6.-0-0-0-0-0-0-0-0-4-4-4-4-5-5-5-5----------



1.------------------------------------------
2.-12-12-12-12-11-11-10-10------------------
3.------------------------------------------
4.------------------------------------------
5.------------------------------------------
6.------------------------------------------

   (SAME AS INTRO)
    HE SINGS, HE'S GOT A BRAND NEW CAR......

    HE'S GOT A CD
    PLAYER, PLAYER, PLAYER..................



1.------------------------------------------
2.------------------------------------------
3.------------------------------------------
4.-2-2-2-2-2-2-2-2-6-6-6-6-7-7-7-7----------          ( DO THIS 2 TIME'S)
5.-2-2-2-2-2-2-2-2-6-6-6-6-7-7-7-7----------
6.-0-0-0-0-0-0-0-0-4-4-4-4-5-5-5-5----------
  
1.------------------------------------------
2.------------------------------------------
3.------------------------------------------
4.-9-9-9-9-9-9-9-9-7-7-7-7-7-7-7-7----------
5.-9-9-9-9-9-9-9-9-7-7-7-7-7-7-7-7----------
6.-7-7-7-7-7-7-7-7-5-5-5-5-5-5-5-5----------
Tap to rate this tab
 
# A B C D E F G H I J K L M N O P Q R S T U V W X Y Z