Song name
# A B C D E F G H I J K L M N O P Q R S T U V W X Y Z

Five Finger Death Punch - The Way Of The Fist tab

Artist: Five Finger Death Punch
Song: the Way of the Fist
Album: the Way of the Fist
Tuning: B E A D F# B
Composer: 5FDP

Riff A
|--------------------------------|
|--------------------------------|
|--------------------------------|
|--------------------------------|
|-------------------------320----|
|-0-0-320-0-0-320-0-0-320----320-|

Riff B
|-----------------------------------|
|-----------------------------------|
|-----------------------------------|
|---------3-3---3/4-----------------|
|---------3-3---3/4-0-0-320---------|
|-0-000-0-1-1-0-1/2---------0-0-320-|

Solo A
|-12h13p12----------------------------------|
|----------15p13p12----12h13p12-------------|
|-------------------14----------14p13-------|
|-------------------------------------15p14-|
|-------------------------------------------|
|-------------------------------------------|

|------------------------------------------------------|
|------------------------------------------------------|
|------------------------------------------------------|
|------------------------------------------------------|
|-15-14-12----11-12-12-11------------------------------|
|----------14-------------13-12-10-12-8-10-7-8-5-7-4-5-|

|-----------------------------------------------------|
|--------------------------------------12-------------|
|--------------14-13----------------------14p13h15----|
|--------------------15-14------------------------14v-|
|-------11-12-------------11-12-14-15-----------------|
|-12-13-----------------------------------------------|

Riff C
|---------------------------------------------------------------------------|
|---------------------------------------------------------------------------|
|---------------------------------------------------------------------------|
|-4-----4-----4----4-------------2-222-2-222-2-22-2-22----------------------|
|-4-----4-----4----4---4-5-4-2-0----------------------2-222-2-222-2-22-2-22-|
|-2-222-2-222-2-22-2-22-----------------------------------------------------|

Riff D (Palm-Muted)
|----------------------------------------------------|
|----------------------------------------------------|
|--------------------1-2-1---------------------------|
|-2-2--3-3--2-2--3-3-------3-2-2--3-3--2-2--3-3------|
|-2-2--3-3--2-2--3-3---------2-2--3-3--2-2--3-3------|
|-0-0--1-1--0-0--1-1---------0-0--1-1--0-0--1-1-1/4v-|
                                                 ^ bass fill for guitar

Riff E
|-------------------------------------------------------------------|
|-------------------------------------------------------------------|
|-7-/9--9-/10--7-/9--9-/10---------7-/9--9-/10--7-/9--9-/10-6h7p6h7-|
|-7-/9--9-/10--7-/9--9-/10-6-7-6---7-/9--9-/10--7-/9--9-/10---------|
|-5-/7--7-/-8--5-/7--7-/-8-------7-5-/7--7-/-8--5-/7--7-/-8---------|
|-------------------------------------------------------------------|

Solo B
|-----------------------------------9/14-14/21-21/17-17/16-16/14-----------------|
|---------------------------------10-----------------------------14-14-13-14-15v-|
|-11/14-14-14-13-13-11/9-11-9-11-11----------------------------------------------|
|--------------------------------------------------------------------------------|
|--------------------------------------------------------------------------------|
|--------------------------------------------------------------------------------|

Order of Play
Riff A X4
Riff B X4
Solo A (Rhythm Plays Riff B X4)
Riff A X4
Riff B X4
Riff C X4
Riff D X2
Riff E X4
Riff A X4
Riff B X4
Riff C X4
Solo B
Riff D X2
Riff E X8
Tap to rate this tab
# A B C D E F G H I J K L M N O P Q R S T U V W X Y Z