Song name
# A B C D E F G H I J K L M N O P Q R S T U V W X Y Z

Five Finger Death Punch - Never Enough tab

Never Enough
Five Finger Death Punch
Way of the Fist

Drop B
BPM 120

Intro
    
E|-----------------------------------------------|
B|-----------------------------------------------|
G|-----------------------------------------------|        x4
D|-----------------------------------------------|
A|----0---------0---------0-----0----------------|
E|--0-0---0-0-0-0---0-0-0-0---0-0-32323232-------|
    .     . . .     . . .     .   ........
Verse 1

E|-----------------------------------------|------------------|
B|-----------------------------------------|------------------|
G|-----------------------------------------|------------------|
D|-----------------------------------------|--1-1-1-1/5-5-5-5-|
A|----0---------0---------0-----0----------|--3-3-3-3/5-5-5-5-|
E|--0-0---0-0-0-0---0-0-0-0---0-0-32323232-|---------/5-5-5-5-| 
    .     . . .     . . .     .   ........
"I'm So Fed Up With Everyone Around Me      No One Seems to Care"
"I'm Just So Far Gone...                    I'll Never Be the Same"
"It's Always Do This... "
"I Dont wanna Live That Way (No!)"
"Every Chance They Get They're Always       Pushn' Me Away!"

Chorus

E|-------------------------------------------------|
B|-------------------------------------------------|
G|-------------------------------------------------|
D|-3-2-0--0-------3-2-0--0-------1-1-1-1/5-5-5-5---|
A|-3-2-0--0-------3-2-0--0-------3-3-3-3/5-5-5-5---|
E|-3-2-0--0-0000--3-2-0--0-0000---------/5-5-5-5---|
            ....           ....
"It's Never Enough...           No Matter What I Say"   
"It's Never Enough...           I'll never be what you Want Me to BE!"

Verse 2

E|-----------------------------------------|------------------|
B|-----------------------------------------|------------------|
G|-----------------------------------------|------------------|
D|-----------------------------------------|--1-1-1-1/5-5-5-5-|
A|----0---------0---------0-----0----------|--3-3-3-3/5-5-5-5-|
E|--0-0---0-0-0-0---0-0-0-0---0-0-32323232-|---------/5-5-5-5-| 
    .     . . .     . . .     .   ........
"It's all so mess up...                     Everyone's Deranged"
"I'm Just so ****ed up...                   Wanna lay it all to waste"
"They're always say this..."
"I Don't wanna Live that Way (No!)"
"Every Chance they get...                   Shoving Me Aside!"

Chorus

E|-------------------------------------------------|
B|-------------------------------------------------|
G|-------------------------------------------------|
D|-3-2-0--0-------3-2-0--0-------1-1-1-1/5-5-5-5---|
A|-3-2-0--0-------3-2-0--0-------3-3-3-3/5-5-5-5---|
E|-3-2-0--0-0000--3-2-0--0-0000---------/5-5-5-5---|
            ....           ....
"It's Never Enough...           No matter what I say"
"It's Never Enough...           I'll Never Be What you want me to BE!"

Bridge

E|-------------------------------------------------------------------------|
B|-------------------------------------------------------------------------|
G|-------------------------------------------------------------------------|
D|-------------------------------------------------------------------------|
A|------------/55-----------------/55----------------------/55-------------|
E|-000-0-0-00------000----0-0-00-------------000----0-0-00------00-00-00-00|
   ... . . ..      ...    . . ..             ...    . . ..      .. .. .. ..
"I'm Done!"

Break Down (Rhythm Guitar)

E|-------------------------------------------------------------------|
B|-------------------------------------------------------------------|
G|-------------------------------------------------------------------|
D|-0-0-0-------0-0-0--------1-1-1-------5-5-5--55-33-22--------------|  x3
A|-0-0-0-------0-0-0--------3-3-3-------5-5-5--55-33-22--------------|
E|-0-0-0-------0-0-0--------------------5-5-5--55-33-22--------------|
   . . .       . . .        . .         . . .  .  .  .
Count to Four Between this part and you'll say at pace.

Break Down (Lead Guitar)







Palm Mute  .
Slide Down /

                            ***Attention***

Just a few notes to clarify the tab. Listen to the song, and you'll notice
 during the verse there is a lot of empahsis on the un-muted notes, to get
 this effect use upstrokes.
During the verse and chorus I have the palm mutes represented by a period.
 The periods directly below the tab are the palm mutes, the periods below that are for the verse, 
 not palm mutes.

This is how my band plays it, I'm going to say it's pretty close to
 perfect. The solo is improvised but fits well. Listen to the song for your
 strum pattern!

Thanks to Xelorh for the working on the tabbing of the solo! \m/

Good luck Knuckle Heads!

I WILL HAVE THE SOLO BY THE END OF MARCH! I PROMISE! (If all goes to plan) 
Tap to rate this tab
# A B C D E F G H I J K L M N O P Q R S T U V W X Y Z