Song name
# A B C D E F G H I J K L M N O P Q R S T U V W X Y Z

Flaw - One More Time tab

One More Time from Flaw
Tuning: BEADGBe

Intro
-----------|
-----------|
-----------|
-----------|
-----------|
-4~~~------|
-2~~~------|

Verse
------------------|
------------------|
------------------|
-/15--13--/15-----|
---------------14-|
------------------|
------------------|

Pre-Chorus(slowly release PM at end)
----------------------------------------------|
----------------------------------------------|
----------------------------------------------|
----------------------------------------------|
----------------------------------------------|
-4-4-4--4-4-4--4-4-4--4-4-4--4444444444444444-|
-2-2-2--2-2-2--2-2-2--2-2-2--2222222222222222-|
 . . .  . . .  . . .  . . .  ................

Chorus
--------------------------|
--------------------------|
--------------------------|
--------------------------|
-----6-7-6-4-6-44-6-7-6-4-|
-444-4-5-4-2-4-22-4-5-4-2-|
-222----------------------|
(above played X3, then this once)
----------------------------|
----------------------------|
----------------------------|
----------------------------|
-----6-7-6-4-6-44-6-7-6-4---|
-444-4-5-4-2-4-22-4-5-4-2-2-|
-222----------------------0-|

-play Intro
-play Verse

Interlude- verse with over guitars playing things like:
---------------------|
---------------------|
---------------------|
-/15-14----/15-14----|
--------16--------14-|
---------------------|
---------------------|

-play Intro
-play Pre-Chorus
-Play Chorus(on 3 string, not 2)
-play Intro
Tap to rate this tab
# A B C D E F G H I J K L M N O P Q R S T U V W X Y Z