Song name
# A B C D E F G H I J K L M N O P Q R S T U V W X Y Z

Flipsyde - Get Ready tab

Help us improve GuitareTab! Take a short survey!
Song: Rapture Ruckus - Get Ready
Email: guitar_guy18@hotmail.com
Tabbed By: Bullet4Myself

Another great Rapture Ruckus song from the album 'I Believe'
This is the intro and chorus's which is pretty much the only guitar in this song.

|---------------------------------------------|
|---------------------------------------------|
|------x-9--------------x-9-------------------|
|-2-2--x-9--2-2----2-2--x-9---2-2-------------|
|-2-2--x-7--2-2----2-2--x-7---2-2-------------|
|-0-0-------0-0----0-0--------0-0-------------|

|---------------------------------------------|
|---------------------------------------------|
|---------------------------------------------|
|-99999999-88888888-77777777------------------|
|-99999999-88888888-77777777------------------|
|-77777777-66666666-55555555------------------|

or..

|----------------------------------------------------------------|
|----------------------------------------------------------------|
|-10b-10b-10b-10b-10b-10b-10b-10b-9b-9b-9b-9b-12b-12b-12b-12b----|
|----------------------------------------------------------------|
|----------------------------------------------------------------|
|----------------------------------------------------------------|

Thats all the guitar there really is. =] Enjoy!

Related for Get Ready tab