Guitaretab - guitar tabs
Song name
# A B C D E F G H I J K L M N O P Q R S T U V W X Y Z

Flipsyde - Someday tab

Hey! this is how I play the solo on Someday, I think its pretty accurate so take a look 
just say if you find anything strange!

But first: the short, but cool lick in the beginning of the song
at 0:33

e |---------------------------------------| Verse starts..
B |---------------------------------------|
G |--9s10-9-7-----------------------------|
D |-----------10-9-7-6--------------------|
A |--------------------8-7----------------|
E |------------------------10-8-7-8-7-8-7-|


Solo 2:12 :

e |---------------------------------------------------|
B |--------------------------------------5-6-5-3------|
G |--------4-5---------4-7---------4-5-7---------5-4-4|
D |777-6-7-----777-6-7-----777-6-7--------------------|
A |---------------------------------------------------|
E |---------------------------------------------------|
[ Tab from: http://www.guitaretab.com/f/flipsyde/190293.html ]
e |------------------------------5-4s5-8-10-12-12-12-12-12-|
B |------------------3-5-6-5-6-5~--------------------------|
G |444-5-4-2-4-5-4-5---------------------------------------|
D |--------------------------------------------------------|
A |--------------------------------------------------------|
E |--------------------------------------------------------|
             ^                  ^                     ^           f.picking
e |777-8-7-8-5-8-7-8--7-10-8-10-7-10-8-10--8-12-10-12-8-12-10-12--13//12//|
B |-----------------------------------------------------------------------|
G |-----------------------------------------------------------------------|
D |-----------------------------------------------------------------------|
A |-----------------------------------------------------------------------|
E |-----------------------------------------------------------------------|

e |121315-13-12-10-13-12--121315-13-12-10-13-12--|
B |----------------------------------------------|
G |----------------------------------------------|
D |----------------------------------------------|
A |----------------------------------------------|
E |----------------------------------------------|

                               |^.......^.....really fast.............|
e |121315-13-12-10-13-12-10-8--131210--10--------^-------^-------^----|
B |----------------------------------13--131210-1312109-1312109-10~~~~|
G |-------------------------------------------------------------------|
D |-------------------------------------------------------------------|
A |-------------------------------------------------------------------|
E |-------------------------------------------------------------------|

^ : just to help you with the beat (cuz I didn't show it very clearly, as u can see) ITS 
A BEND OR HARMONIC!
s : slide
//: fast picking

Thats about it! This was my first tab, so I know It's not that well written but I think 
accurate and you'll get it if you listen to what you're playing!

Let me know if there's anything you have an opinion on ;)
Related for Someday tab