Song name
# A B C D E F G H I J K L M N O P Q R S T U V W X Y Z

Foo Fighters - Skin And Bones tab

Skin and Bones - Foo Fighters
Tabbed by: Bella

This is my first tab so I'm not sure on the accuacy but im pretty sure this is how dave plays it.

Tuning: eBGDAE

Intro
e |--------------------------------|
B |------10-----10-----10-----10---|
G |------10-----10-----10-----10---|
D |--------------------------------|       x4
A |--------------------------------|
E |--10-----10-----10-----10-------|

Verse
e |------------------------------------------------------------|
B |------10-----10-----10-----10-----10-----10-----10-----10---|
G |------10-----10-----10-----10-----10-----10-----10-----10---|
D |------------------------------------------------------------|
A |-----------------10-----10----------------------------------|
E |--10-----10--------------------9------9------10-----10------|    
"Latley I've been..."

e |----------------------------------------------|
B |------10-----10-----10-----10-----10-----10---|
G |------10-----10-----10-----10-----10-----10---|
D |----------------------------------------------|
A |----------------------------------------------|
E |--10-----10-----10-----10------10-----10------|

do that twice

e |------------------------------------------------------------|
B |------10-----10-----10-----10-----10-----10-----10-----10---|
G |------10-----10-----10-----10-----10-----10-----10-----10---|
D |------------------------------------------------------------|
A |-----------------10-----10----------------------------------|
E |--10-----10--------------------9------9------10-----10------|
"wind me up..."

e |------------------------------------------------------------|
B |------10-----10-----10-----10-----10-----10-----10-----10---|
G |------10-----10-----10-----10-----10-----10-----10-----10---|
D |------------------------------------------------------------|
A |------------------------------------------------------------|
E |--9------9-------10-----10-----9------9-----10-----10-------|
"watch me spin..."

Chorus
e |--------------------------------|
B |------3------3------10-----10---|
G |------3------3------10-----10---|
D |--------------------------------|       x3
A |--------------------------------|
E |--3------3------10-----10-------|
"Skin and bones..."

e |--------------------------------|
B |------5------5------5------5----|
G |------0------0------0------0----|
D |--------------------------------|       
A |--------------------------------|
E |--5------5------5------5--------|

do that twice then

e |--------------------------------|
B |------5------5------5------5----|
G |------0------0------0------0----|
D |--------------------------------|  
A |--------------------------------|
E |--5------5------5------5--------|

Intro
e |--------------------------------|
B |------10-----10-----10-----10---|
G |------10-----10-----10-----10---|
D |--------------------------------|       x4
A |--------------------------------|
E |--10-----10-----10-----10-------|

Verse
e |------------------------------------------------------------|
B |------10-----10-----10-----10-----10-----10-----10-----10---|
G |------10-----10-----10-----10-----10-----10-----10-----10---|
D |------------------------------------------------------------|
A |-----------------10-----10----------------------------------|
E |--10-----10--------------------9------9------10-----10------|    
"All worn out..."

e |----------------------------------------------|
B |------10-----10-----10-----10-----10-----10---|
G |------10-----10-----10-----10-----10-----10---|
D |----------------------------------------------|
A |----------------------------------------------|
E |--10-----10-----10-----10------10-----10------|

do that twice

e |------------------------------------------------------------|
B |------10-----10-----10-----10-----10-----10-----10-----10---|
G |------10-----10-----10-----10-----10-----10-----10-----10---|
D |------------------------------------------------------------|
A |-----------------10-----10----------------------------------|
E |--10-----10--------------------9------9------10-----10------|
"the more I give..."

e |------------------------------------------------------------|
B |------10-----10-----10-----10-----10-----10-----10-----10---|
G |------10-----10-----10-----10-----10-----10-----10-----10---|
D |------------------------------------------------------------|
A |------------------------------------------------------------|
E |--9------9-------10-----10-----9------9-----10-----10-------|
"I'm all set..."

Chorus
e |--------------------------------|
B |------3------3------10-----10---|
G |------3------3------10-----10---|
D |--------------------------------|       x3
A |--------------------------------|
E |--3------3------10-----10-------|
"Skin and bones..."

e |--------------------------------|
B |------5------5------5------5----|
G |------0------0------0------0----|
D |--------------------------------|       
A |--------------------------------|
E |--5------5------5------5--------|

do that three times then

e |--------------------------------|
B |------5------5------5------5----|
G |------0------0------0------0----|
D |--------------------------------|       
A |--------------------------------|
E |--5------5------5------5--------|

Bridge
e|--------------------------------------------------------------|
B|--------------------------------------------------------------|
G|-----10-----10------10-----10-------10-----10------10-----10--|
D|--0---------------------9--------0----------------------------|        x4
A|---------8------10----------------------8------10-------------|
E|-------------------------------------------------------9------|
 "I'm just Skin and Bones..."

Intro
e |--------------------------------|
B |------10-----10-----10-----10---|
G |------10-----10-----10-----10---|
D |--------------------------------|       x4
A |--------------------------------|
E |--10-----10-----10-----10-------|

Verse
e |------------------------------------------------------------|
B |------10-----10-----10-----10-----10-----10-----10-----10---|
G |------10-----10-----10-----10-----10-----10-----10-----10---|
D |------------------------------------------------------------|
A |-----------------10-----10----------------------------------|
E |--10-----10--------------------9------9------10-----10------|    
"Deep within this..."

e |----------------------------------------------|
B |------10-----10-----10-----10-----10-----10---|
G |------10-----10-----10-----10-----10-----10---|
D |----------------------------------------------|
A |----------------------------------------------|
E |--10-----10-----10-----10------10-----10------|

do that twice

e |------------------------------------------------------------|
B |------10-----10-----10-----10-----10-----10-----10-----10---|
G |------10-----10-----10-----10-----10-----10-----10-----10---|
D |------------------------------------------------------------|
A |-----------------10-----10----------------------------------|
E |--10-----10--------------------9------9------10-----10------|
"tell my mum..."

e |------------------------------------------------------------|
B |------10-----10-----10-----10-----10-----10-----10-----10---|
G |------10-----10-----10-----10-----10-----10-----10-----10---|
D |------------------------------------------------------------|
A |------------------------------------------------------------|
E |--9------9-------10-----10-----9------9-----10-----10-------|
"Doing fine..."

Chorus
e |--------------------------------|
B |------3------3------10-----10---|
G |------3------3------10-----10---|
D |--------------------------------|       x3
A |--------------------------------|
E |--3------3------10-----10-------|
"Skin and bones..."

e |--------------------------------|
B |------5------5------5------5----|
G |------0------0------0------0----|
D |--------------------------------|       
A |--------------------------------|
E |--5------5------5------5--------|

do that twice

e |--------------------------------|
B |------5------5------5------5----|
G |------0------0------0------0----|
D |--------------------------------|       
A |--------------------------------|
E |--5------5------5------5--------|

Bridge
e|--------------------------------------------------------------|
B|--------------------------------------------------------------|
G|-----10-----10------10-----10-------10-----10------10-----10--|
D|--0---------------------9--------0----------------------------|        x8
A|---------8------10----------------------8------10-------------|
E|-------------------------------------------------------9------|
 "I'm just Skin and Bones..."



Tap to rate this tab
# A B C D E F G H I J K L M N O P Q R S T U V W X Y Z