Guitaretab - guitar tabs
Song name
# A B C D E F G H I J K L M N O P Q R S T U V W X Y Z

Frames - Falling Slowly tab

Falling Slowly
The Frames

(1)
e ------------------------0--------------------------------------------1----------------|
B ------------3---------------------3----------------------3----------------------3-----|
G -------0---------0---------0----------0-----------0---------0----------0-----------0--|
D --------------------------------------------------------------------------------------|
A --3-----------------------------------------------------------------------------------|
E -----------------------------------------------1--------------------------------------|

e ----------------------0------------------------------------------------------------------|
B ------------3-------------------3-------------------------1----------1------------1------|
G -------0-------0---------0---------0--------------0-----------0----------0------------0--|
D -----------------------------------------------------------------------------------------|
A --3--------------------------------------------------------------------------------------|
E ---------------------------------------------1-------------------------------------------|
[ Tab from: http://www.guitaretab.com/f/frames/82624.html ]
(2)
e ---------------0--------------------0---------------------------------------------------|
B ------------------------------------------------------------1------------------------3--|
G --------2---------2----------2---------2----------2----------2-------------0---------0--|
D ----------------------------------------------------------------------------------------|
A -----0-------------------3--------------------------------------------------------------|
E ------------------------------------------------1-----------------------3---------------|

e ---------------0--------------------0------------------------|
B -------------------------------------------------------------|
G --------2---------2----------2---------2---------------------|     go into F
D -------------------------------------------------------------|
A -----0-------------------3-----------------------------------|
E -------------------------------------------------------------|

(1)
I donít know you, but I want you
All the more for that
Words fall through me, and always fool me
And I canít react

(2)
Games that never amount
To more than theyíre meant
Will play themselves out

C                         F
Take this sinking boat
                   A
And point it home
                       F
Weíve still got time
C                            F
Raise your hopeful voice
                  A
You had a choice
                         F
Youíve made it now

(1)
Falling slowly, eyes that know me
And I canít go back
Moods that take me, and erase me
And Iím painted black

(2)
You have suffered enough
And warred with yourself
Itís time that you won

C                         F
Take this sinking boat
                   A
And point it home
                       F
Weíve still got time
C                            F
Raise your hopeful voice
                  A
You had a choice
                         F
Youíve made it now

(keep going on F until the end of the song)

enjoy! livi flynn**
Related for Falling Slowly tab