Song name
# A B C D E F G H I J K L M N O P Q R S T U V W X Y Z

Franco - Castaway tab

Hello..
Castaway - Franco
Tabbed by: Amir Alejandro (From Philippines)

Standard Tuning
Legend:   \  - slide
          .  - palm mute
          ~  - ring
          x  - dead string
intro
guitar1
]--------------------------------------------------------|
]--------------------------------------------------------|
]--------------------------------------------------------|
]-----6----------(6)------------9-------9h11-9-----------|
]------7-----------(7)-----------11-----------11---------|
]-555------(5)(5)------5\9--999-------99-----------------|
(theres an echoing effect)
]----------------------------------------|
]----------------------------------------|
]----------------------------------------|
]----6---------(6)-----7~----------------|
]-----7----------(7)---7~----------------|
]-555-----(5)(5)-------5~----------------|

0:13 - 0:24
guitar1
]--------------------------------------------------------|
]--------------------------------------------------------|
]--------------------------------------------------------|
]-----6------6--------9-------9h11-9---------------------|
]------7------7--------11-----------11-------------------|
]-555------55------5\9-----999-------99------------------|
(repeat this 4x)
guitar2
]--------------------------------------------------------|
]--------------------------------------------------------|
]--------------------------------------------------------|
]-77777\-11-11-11-11-11/-77777\-11-11-11-11-11\----------|
]-77777\-11-11-11-11-11/-77777\-11-11-11-11-11\----------|
]-55555\-9--9--9--9--9-/-55555\-9--9--9--9--9-\----------|
(repeat 2x *you can either use A-C# on this part but on the video they use this pattern)

0:25 - 0:31
Both guitars
]--------------------------------------------------------|
]--------------------------------------------------------|
]--------------------------------------------------------|
]-11-11-11-11-11-11-11-11-11-----------------------------|
]-11-11-11-11-11-11-11-11-11-----------------------------|
]-9--9--9--9--9--9--9--9--9------------------------------|
(*again u can use C# on this part)

verse*step to the farthest side of my dreams.....
guitar1
]--------------------------------------------------------|
]--------------------------------------------------------|
]--------------------------------------------------------|
]----6----6---------9-----9------------------------------|
]-----7----7-7\9-----11----11-9\11/----------------------|
]-555---55-------999----99-------------------------------|

0:49 *slowly........
both guitars
]-------------------|
]-------------------|
]-777777777777------|
]-777777777777------|
]-555555555555------|
]-xxxxxxxxxxxx------|

0:53 *sail into my widest dreams......
guitar1
]--------------------------------------------------------|
]--------------------------------------------------------|
]--------------------------------------------------------|
]----6----6---------9-----9------------------------------|
]-----7----7-7\9-----11----11-9\11/----------------------|
]-555---55-------999----99-------------------------------|

1:18 *hopelessly...........
both guitars
]-------------------|
]-------------------|
]-777777777777------|
]-777777777777------|
]-555555555555------|
]-xxxxxxxxxxxx------|

chorus *on my own.....
guitar1
]-------------------------------|
]-----9~-----9~-----9~-----7~---|
]-5-7----5-7----5-7----5-7------|
]-------------------------------|
]-------------------------------|
]-------------------------------|
guitar2
]--------------------------------------------------------|
]--------------------------------------------------------|
]-----------------99999999-77777777----------------------|
]-7777777-4444444-99999999-77777777----------------------|
]-7777777-4444444-77777777-55555555----------------------|
]-5555555-2222222-xxxxxxxx-xxxxxxxx----------------------|

*darkened skies...
guitar1
]-------------------------------|
]-----9~-----9~-----9~-----7~---|
]-5-7----5-7----5-7----5-7------|
]-------------------------------|
]-------------------------------|
]-------------------------------|
guitar2
]--------------------------------------------------------|
]--------------------------------------------------------|
]-----------------99999999-77777777----------------------|
]-7777777-4444444-99999999-77777777----------------------|
]-7777777-4444444-77777777-55555555----------------------|
]-5555555-2222222-xxxxxxxx-xxxxxxxx----------------------|

1:45 - 1:57
guitar1
]--------------------------------------------------------|
]--------------------------------------------------------|
]--------------------------------------------------------|
]-----6------6--------9-------9h11-9---------------------|
]------7------7--------11-----------11-------------------|
]-555------55------5\9-----999-------99------------------|
(repeat this 4x)
guitar2
]--------------------------------------------------------|
]--------------------------------------------------------|
]--------------------------------------------------------|
]-77777\-11-11-11-11-11/-77777\-11-11-11-11-11\----------|
]-77777\-11-11-11-11-11/-77777\-11-11-11-11-11\----------|
]-55555\-9--9--9--9--9-/-55555\-9--9--9--9--9-\----------|
(repeat 2x*you can either use A-C# on this part but on the video they use this pattern)

(REPEAT ONE VERSE then CHORUS)
3:13
]--------------------------------------------------------|
]--------------------------------------------------------|
]--------------------------------------------------------|
]---66-----66-----99------99-----------------------------|
]-----7------7------11------11---------------------------|
]-55-----55-----99------99-------------------------------|
im not 100% sure w/ this part but it could do w/ the help of some techniques

LYRICS:
Step to the farthest side of my dreams
Be careful of what you might see
So careless inside I'm dying
Slowly
Sail into my widest dreams
Wrapped up like a littlelebum's shoelace
High strung but I am trying
Hopelessly

[Chorus:]
On my own
Cast away
Trapped and caught in a dream
Darkened skies, tidal waves
But I am movin on

See through the hallowed eyes in my dreams
A psycho traumatic hypnotic scene
A mountain of dust to ponder
Over

On my own
Cast away
Trapped and caught in a dream
Darkened skies, tidal waves
But I am movin on

Well I'm blind
Reactions too late.
I'm behind
But catch me I'm movin on
And on...

On my own
Cast away
Trapped and caught in a dream
Darkened skies, tidal waves
But I am movin on

And on...

hmmm... thats pretty much of it. sorry if there is a missing part if you'll notice 
i havent figured out yet the notes but hopefully by next week i could fix it. so, for now 
this and maybe you could help me do the missing part...
its between the 2nd chorus and this riff on 3:13minutes...
dont forget to rate and comment goodluck i love buwi (bassist)of PNE and boss gab(lead 
of URBANDUB


for questions,requests,love letters and death threats
hubby_ni_chic2x@yahoo.com - facebook account (^_^)\/m
Tap to rate this tab
 
# A B C D E F G H I J K L M N O P Q R S T U V W X Y Z