Guitaretab - guitar tabs
Song name
# A B C D E F G H I J K L M N O P Q R S T U V W X Y Z

Franco - Castaway chords

Highlighted       Show chord diagrams
Band: Franco
Album:Franco
Song: Castaway (Franco Reyes)


a try on a great song by franco (originally InYo)
Dedicated to Kris Obaob

Intro: A - C#m7 - A- C#m7 - D

eb|-------------------------------------------|
Bb|-------------------------------------------|
Gb|---------------------------4----4-6-4------|
Db|--------6--------------------6--------6----|
Ab|----------7----------4-4-4-----------------|
Eb|--5-5-5------------------------------------|

eb|-------------------------------------------|
Bb|-------------------------------------------|
Gb|---------------------4---------------------|
Db|--------6------------6---------------------|
Ab|----------7----------4---------------------|
Eb|--5-5-5------------------------------------|

[ Tab from: http://www.guitaretab.com/f/franco/216894.html ]
Verse: 
  A             C#m7                      A
Step to the farthest side of my dreams
               C#m7                       A
Be careful of what you might see
               C#m7
So careless inside I'm dying
  D
Slowly
  A            C#m7            A
Sail into my widest dreams
                      C#m7                A
Wrapped up like a littlelebum's shoelace
                  C#m7
High strung but I am trying
   D
Hopelessly

[Chorus:]
   D
On my own
   A
Cast away
  F#m            E
Trapped and caught in a dream
   D               A
Darkened skies, tidal waves
   F#m    E
But I am movin on

Verse 2: Repeat Chord Patterns for the rest of the song

See through the hallowed eyes in my dreams
A psycho traumatic hypnotic scene
A mountain of dust to ponder
Over

Chorus 2:

On my own
Cast away
Trapped and caught in a dream
Darkened skies, tidal waves
But I am movin on


http://en.wikipedia.org/wiki/Franco_(band)
Related for Castaway chords
Castaway chords by Franco