Song name
# A B C D E F G H I J K L M N O P Q R S T U V W X Y Z

Ghoti Hook - Hook tab

-------------------------------------------------------------------------------
			     SHRINKY DINKS - Ghoti Hook
-------------------------------------------------------------------------------

By: thor arise

Intro:
e|---------------------------------------------------------------------------|
B|---------------------------------------------------------------------------|
G|7--------------------------------------------------------------------------|
D|7-9-7-5-5-5-5--------------------------------------------------------------|
A|5-9-7-5-5-5-5--------------------------------------------------------------|
E|--7-5-3-3-3-3--------------------------------------------------------------|

Verse:
e|---------------------------------------------------------------------------|
B|---------------------------------------------------------------------------|
G|7-7-7-7-7-7----------------------------------------------------------------|
D|7-7-7-7-7-7-9-9-9-9-9-9-5-5-5-5-5-5-7-7-7-7-7-7----------------------------|
A|5-5-5-5-5-5-9-9-9-9-9-9-5-5-5-5-5-5-7-7-7-7-7-7----------------------------|
E|------------7-7-7-7-7-7-3-3-3-3-3-3-5-5-5-5-5-5----------------------------|

Chorus:Play 2x then add the A chord part                        
e|---------------------------------------------------------------------------|
B|---------------------------------------------------------------------------|
G|7-7-7-7-7-7----------------------------------------------------------------|
D|7-7-7-7-7-7-5-5-5-5-5-5-7-7-7-7-7-7----------------------------------------|
A|5-5-5-5-5-5-5-5-5-5-5-5-7-7-7-7-7-7----------------------------------------|
E|------------3-3-3-3-3-3-5-5-5-5-5-5----------------------------------------|

Bridge:Play 2x over the "Yes I am afraid" part
e|--------------------------------------------------------------------------|
B|--------------------------------------------------------------------------|
G|4-------6-------7---------------------------------------------------------|
D|--------------------------------------------------------------------------|
A|2-------4-------5---------------------------------------------------------|
E|--------------------------------------------------------------------------|

Solo:
e|--------------------------------------------------------------------------|
B|--------------------------------------------------5-----------------------|
G|--------------------------------------6--7--6--7-----7--------------------|
D|---4--5--757-9--7--5--77--9--7--5--7--------------------------------------|
A|5-------------------------------------------------------------------------|
E|--------------------------------------------------------------------------|

More Solo:
e|--------------------------------------------------------------------------|
B|--------------------------------------------------------------------------|
G|-------------------------------------6--7--6--4---------------------------|
D|---4--5--757--9--7--5--77--9-7--5-7-------------7--5----------------------|
A|5-------------------------------------------------------------------------|
E|--------------------------------------------------------------------------|
play the solo once by itself then while he sings at the end

Order:Intro X4,verse x4,chorus x4, intro x4, verse x4, chorus x4, bridge x2
solo x2
Questions, comments, pez just email me

=============================================================================
Tap to rate this tab
 
# A B C D E F G H I J K L M N O P Q R S T U V W X Y Z