Song name
# A B C D E F G H I J K L M N O P Q R S T U V W X Y Z

Ghoti Hook - Where Is My Mind tab

Band: Ghoit Hook
song: Where Is My Mind

SOLO: You'll need two guitars to do this solo or it won't sound right
      the first guitar will start out and then half way
      into the solo another guitar will enter in with it!
       
      E---------------------|--------------7-10-12b-14-14-14---------
      B---------------------|---------7-10---------------------------
      G--9b-9b-9b-9-7---7-9-|-7---7-9--------------------------------
      D---------------9-----|---9------------------------------------
      A---------------------|----------------------------------------
      E---------------------|----------------------------------------

      E----------7-10-10-12-12b-14-14-14-----------------------------
      B---7-10-7-----------------------------------------------------
      G--------------------------------------------------------------
      D--------------------------------------------------------------
      A--------------------------------------------------------------
      E--------------------------------------------------------------
Tap to rate this tab
# A B C D E F G H I J K L M N O P Q R S T U V W X Y Z