Song name
# A B C D E F G H I J K L M N O P Q R S T U V W X Y Z

Ghoti Hook - Walking On Sunshine tab

this song is hella easy.

Walking on Sunshine
Ghoti Hook
(the music video owns)

three chord riff, played throughout the majority of the song:
e:------------------|
B:------------------|
G:------3-3-3-5-5-5-|
D:3-3-3-3-3-3-5-5-5-|
A:3-3-3-1-1-1-3-3-3-|
E:1-1-1-------------|
Repeat as Desired.

Chorus: even hellaer easy:
e:------------------|
B:------------------|
G:5-5-5-5-3-3-3-3---|
D:5-5-5-5-1-1-1-1---|
A:3-3-3-3-1-1-1-1---|
E:------------------|
Repeat as desired.

Well if you cant play that song, then your retarded.
www.geocities.com/bosshossrock

Tabbed by: Sigmund Albarez
Tap to rate this tab
# A B C D E F G H I J K L M N O P Q R S T U V W X Y Z