Song name
# A B C D E F G H I J K L M N O P Q R S T U V W X Y Z

Ghoti Hook - I Love Rock And Roll tab

Good luck, its not that hard to learn though


 (intro & chorus)Part 1
E------------------------------------------|
B------------------------------------------|
G------------------------------------------|
D-2-2---2-2--5--7-7--9-9--5----------------|
A-2-2---2-2--5--7-7--9-9--5----------------|
E-0-0---0-0--3--5-5--7-7--3----------------|

 Part 2
E--------------------------------------------------------------------------|
B----------------------------------------------------17p15-----------------|
G-------------------------------------------------------16-14------9p7-----|
D-2-2---2-2--5--7-7--9-9--5--2-2-x-x-x-x-2-2-x-x-x-x-------17--or----9-7---|
A-2-2---2-2--5--7-7--9-9--5--2-2-x-x-x-x-2-2-x-x-x-x-------------------10--|
E-0-0---0-0--3--5-5--7-7--3--0-0-x-x-x-x-0-0-x-x-x-x-----------------------|

 (verses)
E--------------------------------------------------------------------------|
B--------------17p15-----------------------17p15---------------------------|
G-----------------16-14-----------------------16-14------------------------|
D-2-2---2-2-----------17---2-2---9-9-------------17------------------------|
A-2-2---2-2----------------2-2---9-9---------------------------------------|
E-0-0---0-0----------------0-0---7-7---------------------------------------|

E--------------------------------------------------------------------------|
B--------------------------------------------------------------------------|
G--------------------------------------------------------------------------|
D-7-7---9-9---2-2---7~~~~--------------------------------------------------|
A-7-7---9-9---2-2---7~~~~--------------------------------------------------|
E-5-5---7-7---0-0---5~~~~--------------------------------------------------|
(chorus is the same riff as the intro)

great tab, great band, great song!
Tap to rate this tab
 
# A B C D E F G H I J K L M N O P Q R S T U V W X Y Z