Song name
# A B C D E F G H I J K L M N O P Q R S T U V W X Y Z

Godhead - Hate In Me tab

Band- Godhead
Song- The hate In Me

Tuning: ((CGCFAd))

Intro::                       (Play these multiple times)
|-----------------------------|--------------------15---|
|-----------------------------|----------13---12----x---|
|-----------------------------|-14--11----x----x---12---|
|-----------------------------|--x---x---11---10--------|
|-(8)-(8)-(8)-(8)-(8)-8-8-8-8-|-12---9------------------|
|-----------------------------|-------------------------|

Verse::
|-----------------------|
|-----------------------|
|-----------------------|
|-4-4---4-4---4-4---4-4-|
|-4-4---4-4---4-4---4-4-|
|-4-4---4-4---4-4---4-4-|

Chorus::
|---------------------------------|-------------------------|-----------------------
|-7-7-7-7-7-7-7-7-5-5-5-5-5-5-5-5-|-------------------------|-----------------7-7-7-
|-6-6-6-6-6-6-6-6-4-4-4-4-4-4-4-4-|-7-7-7-7-7-7-7-7-7-7-7-7-|-6-6-6-6-6-6-6-6-6-6-6-
|-4-4-4-4-4-4-4-4-2-2-2-2-2-2-2-2-|-7-7-7-7-7-7-7-7-7-7-7-7-|-6-6-6-6-6-6-6-6-4-4-4-
|-4-4-4-4-4-4-4-4-2-2-2-2-2-2-2-2-|-5-5-5-5-5-5-5-5-5-5-5-5-|-4-4-4-4-4-4-4-4-4-4-4-
|-4-4-4-4-4-4-4-4-2-2-2-2-2-2-2-2-|-0-0-0-0-0-0-0-0-0-0-0-0-|-----------------4-4-4-
                                        ^^(play 2x)^^
Interlude::
|--(14)-(14)-(14)-(14)-(14)-(14)-(14)-(14)--17^^^^-(multiple bends)-
|---17^--17^--17^--17^--17^--17^--17^--17---------------------------
|-------------------------------------------------------------------
|-------------------------------------------------------------------
|-------------------------------------------------------------------
|-------------------------------------------------------------------

verse2::               (x3) then-------->
|---------------------------------|-----------------|
|---------------------------------|-----------------|
|---------------------------------|-----------------|
|---------------------------------|-----------------|
|-4-4-4-4-4-4-4-4-7-7-7-7-7-7-7-7-|-4-4-4-4-4-4-4-4-|
|-4-4-4-4-4-4-4-4-7-7-7-7-7-7-7-7-|-4-4-4-4-4-4-4-4-|

(guitar 2 does this weird thing once in awhile during the verses that i found)
|-------------14-|
|----------14----|
|-------14-------|
|----16----------|
|-16-------------|
|----------------|

Freeky Guitar ***::: (with Wah)      (Play Multiple Times)
|----------20--|             |-----------------------|
|----------18--|             |-------------------13--|
|----------17--| Guitar 2 -->|-14--11---14---11---x--|
|-x/-16--------|             |--x---x----x----x--11--|
|-x/-----------|             |-12---9---12----9------|
|-x/-----------|             |-----------------------|

Keyboard Part:::
|-------------------------------------|
|---7------7-7----7---------7---7-----|
|-9----9-9------9----9-9--9---9-------|
|-------------------------------------|
|-------------------------------------|
|-------------------------------------|
Tap to rate this tab
 
# A B C D E F G H I J K L M N O P Q R S T U V W X Y Z