Song name
# A B C D E F G H I J K L M N O P Q R S T U V W X Y Z

Goldfinger - One More Time tab

-------------------------------------------------------------------------------
                         One More Time (Solo) - Goldfinger
-------------------------------------------------------------------------------
Tabbed by: Rives Deuterman
E-mail: rivesdeuterman@gmail.com


This is my first tab so sorry if there are any errors, 
sounds about right to me though. 
I tried to write it so it was generally in tempo but
if you just listen to it you should be able to get the timing down. 
Please comment!


Tuning: standard eBGDAE

e|---------------------------------------------------------------------------|
B|---------------------------------------------------------------------------|
G|-------------------------------------------------------14-14-14-13--131313-|
D|-------------------------------------------------7--7--14-14-14-14--141414-|
A|------------------------------------6--7--6-7-6----------------------------|
E|----------------------5--5--4-4-4-7----------------------------------------|
  "... to feel alive!"  (triplets^^^)           (triplets ^^^^)
e|---------------------------------------------------------------------------|
B|-------------------------------------------------17171717171717-19~~~~~~~--|
G|-13131313--14--14--13-13-13-16--16br-14-------16---------------------------|
D|-14141414-------------------------------14/16-----(17's^^^)----------------|
A|---------------------------------------------------------------------------|
E|---------------------------------------------------------------------------|


************************************

| /   slide up
| \   slide down
| h   hammer-on
| p   pull-off
| ~   vibrato
| +   harmonic
| x   Mute note
| b   Bend
| pb  Pre-bend
| br  Bend release
| pbr Pre-bend release
| brb Bend release bend

************************************
Tap to rate this tab
# A B C D E F G H I J K L M N O P Q R S T U V W X Y Z