Song name
# A B C D E F G H I J K L M N O P Q R S T U V W X Y Z

Gorillaz - Kids With Guns tab

Help us improve GuitareTab! Take a short survey!
This is the main guitar riff that plays along with the bass to the "push it real" line. 
starts when 2d says 'drinking out', stops for the chorus and contines when ever anyone 
push real.

e|----------------|----------------|
b|----------------|----------------|
g|----------------|----------------|
d|----4-2-------2-|----6-2-------2-|
a|----5-3-----3---|----7-3-----3---|
e|--7-------5-----|--7-------5-----|

pre chorus

e|----------------|----------------|
b|----------------|----------------|
g|----------------|----------------|
d|----------------|----------------|
a|----------------|----------------|
e|7-7-7-----------|7-7-7-----------|

The 2nd guitar goes next to the lead but doesn't start intil the 2nd verse

e|----------------|----------------|
b|----------------|----------------|
g|----------------|----------------|
d|o---------------|--------o-------|
a|--2---2-3-o---o-|2---------2---2-|
e|----2-------o---|--4-o-4-----2---|

The rythem goes along side the lead and the 2nd in the same places

e|----------------|----------------|
b|------o---------|------o---------|
g|--8-8-o-6-6-6---|--9-9-o-7-7-7---|
d|--9-9-o-7-7-7---|--9-9-o-7-7-7---|
a|--9-9-o-7-7-7---|--7-7-o-5-5-5---|
e|--7-7---5-5-5---|----------------|

Pre chorus

e|----------------|----------------|
b|----------------|----------------|
g|8-8-8-----------|8-8-8-----------|
d|9-9-9-----------|9-9-9-----------|
a|9-9-9-----------|9-9-9-----------|
e|7-7-7-----------|7-7-7-----------|
Related for Kids With Guns tab