Song name
# A B C D E F G H I J K L M N O P Q R S T U V W X Y Z

Grey Daze - Anything Anything tab

Anything - Grey Daze  - by Mateoz555

Tuning - Standard


Listen the song and play, dicing beating well

0:01								       0:19

E-----------------------------------------------------------|        E------------|
H-----------------------------------------------------------|        H------------|
G------------------------------5-5-5-5-5-5--7-7-7-7-7-7-----|        G------------|
D----2-2-2-2-2-2--5-5-5-5-5-5--5-5-5-5-5-5--7-7-7-7-7-7-----| x4     D------------|
A----2-2-0-0-0-0--5-5-5-5-5-5--3-3-3-3-3-3--5-5-5-5-5-5-----|        A---2/(10)---|
E----0-0-0-0-0-0--3-3-3-3-3-3-------------------------------|        E------------|
 


0:20  You can play this part like here: or play 10,9 and 11 frets on A strig
I prefer thisversion:

E------------------------------------|
H------------------------------------|
G------------------------------------|
D-----5--4--5--4--5--4--5-7-7-7------| x2
A------------------------------------|
E------------------------------------|


0:30								      0:50 REF.

E-----------------------------------------------------------|        E------------|
H-----------------------------------------------------------|        H------------|
G------------------------------5-5-5-5-5-5--7-7-7-7-7-7-----|        G------------|
D----2-2-2-2-2-2--5-5-5-5-5-5--5-5-5-5-5-5--7-7-7-7-7-7-----| x4     D------------|
A----2-2-0-0-0-0--5-5-5-5-5-5--3-3-3-3-3-3--5-5-5-5-5-5-----|        A---2/(10)---|
E----0-0-0-0-0-0--3-3-3-3-3-3-------------------------------|        E------------|


0:51 

E------------------------------------|
H------------------------------------|
G------------------------------------|
D-----5--4--5--4--5--4--5-7-7-7------| x4
A------------------------------------|
E------------------------------------|



1:12								      1:30 

E-----------------------------------------------------------|        E------------|
H-----------------------------------------------------------|        H------------|
G------------------------------5-5-5-5-5-5--7-7-7-7-7-7-----|        G------------|
D----2-2-2-2-2-2--5-5-5-5-5-5--5-5-5-5-5-5--7-7-7-7-7-7-----| x4     D------------|
A----2-2-0-0-0-0--5-5-5-5-5-5--3-3-3-3-3-3--5-5-5-5-5-5-----|        A---2/(10)---|
E----0-0-0-0-0-0--3-3-3-3-3-3-------------------------------|        E------------|


1:31 

E------------------------------------|
H------------------------------------|
G------------------------------------|
D-----5--4--5--4--5--4--5-7-7-7------| x4
A------------------------------------|
E------------------------------------|


1:56  and  2:01  and  2:07 this:		 at 2:14  this:        at 2:23 this:

E--------------------------|                    E------------|          E------------|
H--------------------------|			H------------|		H------------|
G------x-x-x-x-x-x-x-------|			G------------|		G------------|
D------x-x-x-x-x-x-x-------|       		D------5~~---|		D------------|
A------x-x-x-x-x-x-x-------|			A------------|		A---2/(10)---|
E--------------------------|			E------------|		E------------|


2:24

E------------------------------------|
H------------------------------------|
G------------------------------------|
D-----5--4--5--4--5--4--5-7-7-7------| x11
A------------------------------------|
E------------------------------------|



All song step by step - Anything - Grey Daze - by Mateoz555





Tap to rate this tab
 
# A B C D E F G H I J K L M N O P Q R S T U V W X Y Z