Song name
# A B C D E F G H I J K L M N O P Q R S T U V W X Y Z

Gustavo Santaolalla - The Choice tab

This version is played with a seven string guitar in standard tuning (B,E,A,D,G,B,E)
EXCEPT the low B and E are downtuned to an E (on the seventh string) and a C (on the 
sixth string).

             Main Sequence Repeated Twice
E -------------------------------------------------------------------------------|
B -------------------------------------------------------------------------------|
G -------------------------------------------------------------------------------|
D -------5-------------2--------4----------------5-------------2---------4-------|
A -------------------------------------------------------------------------------|
C ----4--------------0--------2---------------4--------------0--------2----------|
E -------------------------------------------------------------------------------|


E -------------------------------------------------------------------------------|
B -------------------------------------------------------------------------------|
G -------------------------------------------------------------------------------|
D ---------------------2---------------------------------------------------------|
A -------5--------------2--------------------------------------------------------|
C ----2--------------0-----------------------------------------------------------|
E -------------------------------------------------------------------------------|



     Bridge/ Low note section
E -------------------------------------------------------------------------------|
B -------------------------------------------------------------------------------|
G ----------------------------------1--------------------------------------1-----|
D ------6--7-8-----2---------/4--- -2-----------6--7-8-----2--------/4---- 2-----|
A ----------------- 3-------------------------------------- 3--------------------|
C -------------------------------------------------------------------------------|
E ----0---------------------------0-----------0-------------------------0--------|



E -------------------------------------------------------------------------------|
B -------------------------------------------------------------------------------|
G ----------4--------------------2------2-------1----------1---------------------|
D --------4-----4--------------2------------------------------2------------------|
A -----/5-------------------/3-------------------------------------------6-------|
C -------------------------------------------------------------------------------|
E --------------------------------------------0-----------------------7----------|
Tap to rate this tab
# A B C D E F G H I J K L M N O P Q R S T U V W X Y Z