Song name
# A B C D E F G H I J K L M N O P Q R S T U V W X Y Z

Gustavo Santaolalla - The Last Of Us tab

-------------------------------------------------------------------------------
                             The Last Of Us (Goodnight) - Gustavo Santaolalla
-------------------------------------------------------------------------------
Tabbed by: earncreek
E-mail: earncreek00@gmail.com

Tuning: Standard EADGBe

          Intro:
e|----------------7----------------------------------7----------------------|
B|---8---------8-----8----------8----8-----------8--------------------------|
G|-9-----9-----------------9------9--------9--------------------------------|
D|-----9----9-----------9----9----------9-----9-----------------------------|
A|--------------------------------------------------------------------------|
E|--------------------------------------------------------------------------|



e|---------------------------------------------------------------------------|
B|-8-----------10----7-----8-----8-----8-------------------------------------|
G|-----9-9---9-----9-----9-----9-----9---------------------------------------|
D|---9-----9-----9-----9-----9-----9-----------------------------------------|
A|---------------------------------------------------------------------------|
E|---------------------------------------------------------------------------|

e|---------------------------------------------------------------------------|
B|-8-----------10----7-----10/12----12----12---------------------------------|
G|-----9-9---9-----9-----9--------9-----9------------------------------------|
D|---9-----9-----9-----9--------9-----9--------------------------------------|
A|---------------------------------------------------------------------------|
E|---------------------------------------------------------------------------|

e|---------------------------------------------------------------------------|
B|-8-----------10-----7-----8-----8------------------------------------------|
G|-----9-9---9------9-----9-----9--------------------------------------------|
D|---9-----9------9-----9-----9----------------------------------------------|
A|---------------------------------------------------------------------------|
E|---------------------------------------------------------------------------|

e|-------------------------------------------0--------------------------------|
B|-11----10h11p10----8h10p8---------------------------------------------------|
G|-----9-----------9---------9-9---7-7/9---7----------------------------------|
D|---9-----------9---------9-----9-------9------------------------------------|
A|----------------------------------------------------------------------------|
E|----------------------------------------------------------------------------|


          Outro:
e|--------------------------------------------12-----------------------------|
B|-----10------10--7-------8-------------------------------------------------|
G|-9-8-----9-------------9-----9-----9-----9-9-------------------------------|
D|-------9---9---------------9----9---------9--------------------------------|
A|---------------------------------------------------------------------------|
E|---------------------------------------------------------------------------|




************************************

| /   slide up
| \   slide down
| h   hammer-on
| p   pull-off
| ~   vibrato
| +   harmonic
| x   Mute note
| b   Bend
| pb  Pre-bend
| br  Bend release
| pbr Pre-bend release
| brb Bend release bend

************************************
Tap to rate this tab
# A B C D E F G H I J K L M N O P Q R S T U V W X Y Z