Song name
# A B C D E F G H I J K L M N O P Q R S T U V W X Y Z

Gustavo Santaolalla - Home tab

tr- tremolo
/-slide up
h-hammer on
p-pull off

Intro
 G5Em5F#5              Bm
e---------------------------------------------------------------------------|
B---------0h2--12/14----------0tr-------------------------------------------|
G---------------------------4-----------------------------------------------|
D-----------------------4-4-------------------------------------------------|
A-5-2-4----------------2-2--------------------------------------------------|
E-3-0-2---------------------------------------------------------------------|

Main intro theme
  Bm                                                   F#
e-------0-2-------0-2-----------0-2-------0-2-------------------------------|
B---0-3-----3-0--3----3-0---0-3-----3-0-3----3-0---0------------------------|
G------------------------------------------------------3--------------------|
D-4-----------------------4----------------------4---4----------------------|
A---2-----2---------2-------2-----2---------2------2------------------------|
E------------------------------------------------------2--------------------|

Main theme Embellished
  Bm       Bm7
e----------------------0-2-----0-2------------------------------------------|
B----3---3----3---3---3---3-0-3---3-0--0------------------------------------|
G(4)4---4-(2)2---2-4~-------------------------------------------------------|
D--4---4----4---4--------------------4--------------------------------------|
A-2--(2)---2--(2)--------2-------2-----2------------------------------------|
E---------------------------------------------------------------------------|

Development 1
  Bm        G                Em              G    F#
e---------0-2--------------0-2--------------------------------------------|
B-0--3---3-------3-0-----3-------3-0---------0----------------------------|
G---4----------0----------------------------------3-----------------------|
D--4---4---------------0-------0-------0--4-------------------------------|
A-0---0-------------------------------------------------------------------|
E-----------3--------3-------0-------0-------3----2-----------------------|

Development 2
   Bm       Bm7       Bm       Bm7      C      Bm       C     Bm
e---------------------------------------0---------------0--------------------|
B-----3---3----3---3--3--3---3----3---3-1---------3---4-1---------3---3------|
G--4-4---4--2-2---2-----4---4--4-2---2--0--0---4-4---4--0--0-----4---4-------|
D---4---4----4---4-----4---4----4---4---2-2-4---4---4---2-2-4-0-4---4--------|
A--2---2----2---2-----2---2----2---2----3------2---2----3-----2----2---------|
E----------------------------------------------------------------------------|
  A            G
e--------------------------------------------------------------------------|
B----0h2p0-----0-----------------------------------------------------------|
G---2-----0----------------------------------------------------------------|
D--2--------4--------------------------------------------------------------|
A-0------------------------------------------------------------------------|
E--------------3-----------------------------------------------------------|

Main theme return
  Bm       Bm7      Bm   Bm7    Bm           Bm           Bm7      F#     Bm
e------------------------2----0-2----------0-2----------------------------2-|
B----3---3----3---3----3----3------3-----3------3------------3------------3-|
G-4-4---4--2-2---2--4-4-------------4------------4------4-4-4------3--3---4-|
D--4---4----4---4----4----4------4-----4------4-----4-4----4---4-4---4-4--4-|
A-2---2----2---2----2----2------2-----2------2-----2------2---2-----4---4-2-|
E------------------------------------------------------------------2------2-|
Tap to rate this tab
# A B C D E F G H I J K L M N O P Q R S T U V W X Y Z