Song name
# A B C D E F G H I J K L M N O P Q R S T U V W X Y Z

Guttermouth - Whiskey tab

* = palm muted
# = let ring


Intro           4x's *last time w/distortion*
E|--------------------------------------------|
B|--------------------------------------------|
G|------7-9--9-10-9--9-7-9-9------------------|
D|-9--9-7-9--9-10-9--9-7-9-9------------------|
A|-9--9-5-7--7-8--7--7-5-7-7------------------|
E|-7--7---------------------------------------|

Verse
E|--------------------------------------------|
B|--------------------------------------------|
G|-----7-999-10-999-7-999---------------------|
D|-999-7-999-10-999-7-999---------------------|
A|-999-5-779-8--777-5-777---------------------|
E|-777----------------------------------------|
   *** * *** *  *** * ***

Chorus A                                 4x's             
E|--------------------------------------------|
B|--------------------------------------------|
G|------7-9--9-10-9--9-7-9-9------------------|
D|-9--9-7-9--9-10-9--9-7-9-9------------------|
A|-9--9-5-7--7-8--7--7-5-7-7------------------|
E|-7--7---------------------------------------|

Chorus B                                 2x's
E|--------------------------------------------|
B|--------------------------------------------|
G|------7----9----12-12-12-11-11-10-----------|
D|-9----7----9----12-12-12-11-11-10-----------|
A|-9----5----7----10-10-10--9--9--8-----------|
E|-7------------------------------------------|
   #    #    #

Order-
  Intro
  Verse 
  Chorus A
  Chorus B
  Verse
  Chorus A
  Chorus B
  Intro *last note cut short*
Tap to rate this tab
# A B C D E F G H I J K L M N O P Q R S T U V W X Y Z