Guitaretab - guitar tabs
Song name
# A B C D E F G H I J K L M N O P Q R S T U V W X Y Z

Heavens To Betsy - Firefly tab

e |---3-3-3-3-3-7--7-7-7-7--3-2-2-2-2-6--6-6-6-6-------|
B |---3-3-3-3-3-7--7-7-7-7--3-2-2-2-2-6--6-6-6-6-------|
G |---4-4-4-4-4-8--8-8-8-8--3-3-3-3-3-7--7-7-7-7-------|
D |---5-5-5-5-5-9--9-9-9-9--4-4-4-4-4-8--8-8-8-8-------|
A |---5-5-5-5-5-9--9-9-9-9--4-4-4-4-4-8--8-8-8-8-------|
E |---3-3-3-3-3-7--7-7-7-7--2-2-2-2-2-6--6-6-6-6-------|
         G        B           F#        Bb
[ Tab from: http://www.guitaretab.com/h/heavens-to-betsy/148471.html ]
  Play this ^ during the Verses, intro, whatever.


e |---3-/-7----------|
B |---3-/-7----------|
G |---4-/-8----------|
D |---5-/-9----------|
A |---5-/-9----------|
E |---3-/-7----------| X4


Play this ^ during the Chorus (ďA BugĒ bit).

Ok Iím not so sure bout the chord progression, nor if Iíve got the type of chords 
But it sounds gr8 anyway. If u think its wrong, email me heat_like_burning@hotmail.com.
Related for Firefly tab