Hillsong United - Rhythms Of Grace tab

HILLSONG UNITED - RHYTHMS OF GRACE TAB

INTRO (Accompanied by piano)

Am F C C x2 / Dm Am F F / C

e|-5-5-5-5-5-5\1-1-1-1-1-1-1/8-8-8-8-8-8-8-8-8-8-8-8-8-|
B|-----------------------------------------------------|
G|-----------------------------------------------------|
D|-----------------------------------------------------|
A|-----------------------------------------------------|
E|-----------------------------------------------------|

e|-5-5-5-5-5-5\1-1-1-1-1-1-1/8-8-8-8-8-8-8-8-8-8-8-8-8-|
B|-----------------------------------------------------|
G|-----------------------------------------------------|
D|-----------------------------------------------------|
A|-----------------------------------------------------|
E|-----------------------------------------------------|

e|-10-10-10-10-10-10\8-8-8-8-8-8-8-1-1-1-1-1-1-1-1-1-1-1-1-|
B|---------------------------------------------------------|
G|---------------------------------------------------------|
D|---------------------------------------------------------|
A|---------------------------------------------------------|
E|---------------------------------------------------------|

e|-3-3-3-3-3-3-3-3-3-3-3-3-3-3-3-3-3-3-3-3-3-3-3-3-|
B|-------------------------------------------------|
G|-------------------------------------------------|
D|-------------------------------------------------|
A|-------------------------------------------------|
E|-------------------------------------------------|

VERSE 1 (Repeat intro - other instruments enter)
Am            F               C
My life is a life for your cause
Am            F               C
My will laid aside for your call
Dm                Am             F
And reserved all the depth of my heart
C
Only for You

VERSE 2 (Repeat intro - other instruments build)
Am            F               C
I'm caught in the rhythms of grace
Am          F           C
They overcome all of my ways
Dm              Am             F
We align in each step that we take
                C
To live for Your glory

CHORUS
      G      Am           F
There's none beside You God
      G      Am           F  C
There's none beside You God

e|-3-3-3-3-3-3-3-3-3-3-3-3-5-5-5-5-5-5-5-5-5-5-5-5-|
B|-------------------------------------------------|
G|-------------------------------------------------|
D|-------------------------------------------------|
A|-------------------------------------------------|
E|-------------------------------------------------|


e|-1-1-1-1-1-1-1-1-1-1-1-1\3-3-3-3-3-3-3-3-3-3-3-3-|
B|-------------------------------------------------|
G|-------------------------------------------------|
D|-------------------------------------------------|
A|-------------------------------------------------|
E|-------------------------------------------------|

X2

VERSE 3
You're there in dark of the night
While holding the sun and its light
Through the triumph and trials alike
There's no one beside You

VERSE 4
Your voice calls the stars by their name
You whisper them all to their place
To testify of Your wonder and praise
Both now and forever


e|---------------------------------------------------------------------------|
B|---------------------------------------------------------------------------|
G|-9-9-9-9-9-9\10-10-10-10-10-10-10\12-12-12-12-12-12-12-12-12-12-12-12-12\9-|
D|---------------------------------------------------------------------------|
A|---------------------------------------------------------------------------|
E|---------------------------------------------------------------------------|

e|----------------------------------------------------------------------------|
B|----------------------------------------------------------------------------|
G|-9-9-9-9-9-9\10-10-10-10-10-10-10\12-12-12-12-12-12-12-12-12-12-12-12-12\10-|
D|----------------------------------------------------------------------------|
A|----------------------------------------------------------------------------|
E|----------------------------------------------------------------------------|

e|---------------------------------------------------------------|
B|---------------------------------------------------------------|
G|-10-10-10-10-10-10\9-9-9-9-9-9-9\2-2-2-2-2-2-2-2-2-2-2-2-2-2\9-|
D|---------------------------------------------------------------|
A|---------------------------------------------------------------|
E|---------------------------------------------------------------|

e|-------------------------------------------------|
B|-------------------------------------------------|
G|-9-9-9-9-7-7-9-9-7-7-9-9-9-9-9-9-7-7-9-9-7-7-9-9-|
D|-------------------------------------------------|
A|-------------------------------------------------|
E|-------------------------------------------------|

X2

CHORUS
      G      Am           F
There's none beside You God
      G      Am           F
There's none beside You God
          G       Am            F
I live my life to shine Your light
               G       Am          F  (C)
'Cause there is none beside You God

e|-3-3-----3-3-3-3-----3-3\5-5-5-----5-5-5-5-----5-5-|
B|-----3-3---------3-3-----------5-5---------5-5-----|
G|---------------------------------------------------|
D|---------------------------------------------------|
A|---------------------------------------------------|
E|---------------------------------------------------|

e|-----5-5-3-3-----5-5-3-3-----5-5-3-3-----5-5-3-3-|
B|-6-6---------6-6---------6-6---------6-6---------|
G|-------------------------------------------------|
D|-------------------------------------------------|
A|-------------------------------------------------|
E|-------------------------------------------------|

e|-3-3-----3-3-----3-3-----5-5-----5-5-----5-5-----|
B|-----3-3-----3-3-----3-3-----5-5-----5-5-----5-5-|
G|-------------------------------------------------|
D|-------------------------------------------------|
A|-------------------------------------------------|
E|-------------------------------------------------|

e|-----5-5-3-3-----5-5-3-3-----5-5-3-3-----5-5-3-3-|
B|-6-6---------6-6---------6-6---------6-6---------|
G|-------------------------------------------------|
D|-------------------------------------------------|
A|-------------------------------------------------|
E|-------------------------------------------------|

INSTRUMENTAL
C C F F Am Am F F x3

(Piano plays this, but guitar can too)
e|-------15-12-10-12----|
B|-12h13-------------13-|
G|----------------------|
D|----------------------|
A|----------------------|
E|----------------------|

BRIDGE (Repeat instrumental (x2))
C
No eye has seen
C
No ear has heard
F                   F
The depths of Your love Lord
Am
No mind can fathom
Am
The love You deserve
F             F   (C)
How great You are

************************************

| /  slide up
| \   slide down
| h   hammer-on
| p   pull-off
| ~   vibrato
| +   harmonic
| x   Mute note
| b   Bend
| pb  Pre-bend
| br  Bend release
| pbr Pre-bend release
| brb Bend release bend

************************************
Tap to rate this tab
 
# A B C D E F G H I J K L M N O P Q R S T U V W X Y Z