Song name
# A B C D E F G H I J K L M N O P Q R S T U V W X Y Z

Hinder - Up All Night tab

I figured most of the song by ear and i'm working on the solo and the beginning of the 
I know there is more than
one guitar part in this but i'll just do the main guitar riffs. I think its pretty 
P.S: This is my first guitar tab
i'm doing so don't be hard on me if i mess it up a bit. :-)  Also, you have to figure 
the strumming.

Intro:

e------------------7---------------------------------6/7-7h9-7-6-6h7--|
B--9-9-7-9-7h9-7-9---9-9-7-9-7h9-7-9--9-9-7-9-7h9-7-9-----------------|
G------------------------------------8--------------------------------| (2x)
D---------------------------------------------------------------------|
A---------------------------------------------------------------------|
E---------------------------------------------------------------------|

Verse:

e-----------------------------------|
B-----------------------------------|
G-----------------------------------|
D--9--6--4--6-xx--6--6--4--6--------| (4x)
A--9--6--4--6-xx--6--6--4--6--------|
E--7--4--2--4-xx--4--4--2--4--10/3--|

Pre-Chorus: (not sure but this is how I play it.)

e--------------|
B--------------|
G--------------|
D--3--4--3--2--|(1x)
A--3--4--3--2--|
E--1--2--1--0--|

Chorus:

e------------------------------------|
B------------------------------------|
G------------------------------------| (3x)
D--9--6--44--6-6-xx-2-2-2-2-4-4-4-4--|
A--9--6--44--6-6-xx-2-2-2-2-4-4-4-4--|
E--7--4--22--4-4-xx-0-0-0-0-2-2-2-2--|

Intro(1x)
Verse(2x)
Pre-chorus(1x)
Chorus(3x)
Solo-I can't figure this out yet.
Bridge(Intro 1x)
Chorus(7x)

Ending:

e---------------|
B---------------|
G---------------|
D-9--6--4--6-6--|
A-9--6--4--6-6--|
E-7--4--2--4-4--|

Its pretty simple except for the solo. Have Fun-Bring back the 80's
Tap to rate this tab
# A B C D E F G H I J K L M N O P Q R S T U V W X Y Z