Song name
# A B C D E F G H I J K L M N O P Q R S T U V W X Y Z

Hollywood Undead - Young tab

Song: Young
Artist: Hollywood Undead
Album: Swan Songs

Note: Most people TAB this song in drop D tuning; of which Hollywood Undead almost 
use. But, this song never uses the low D note, and the pre-chorus in particular is 
easier in half step down tuning. So I've tabbed it accordingly.

Guitar 1 - Tune down  step (Low to high: D# G# C# F# A# D#)

Intro
|--------4-4-------|-------4-4--------|
|o---------------7-|-7---------------o|
|--6-6---------6---|---6---------6-6--|
|------------------|------------------|
|o-----------------|-----------------o|
|------------------|------------------|

Chorus
|------------------|-----------------|-----------------|------------------|
|o-----------------|-----------------|-----------------|-----------------o|
|------------------|-----------------|-----------------|------------------|
|--6-6-6-6-6-6-6-6-|-8-8-8-8-8-8-8-8-|-----------------|------------------|
|o-4-4-4-4-4-4-4-4-|-6-6-6-6-6-6-6-6-|-7-7-7-7-7-7-7-7-|-9-9-9-9-9-9-9-9-o|
|------------------|-----------------|-5-5-5-5-5-5-5-5-|-7-7-7-7-7-7-7-7--|

Verse
                                                                          x4
|------------------|-----------------|-----------------|------------------|
|o-----------------|-----------------|-----------------|-----------------o|
|--6-6-------------|-----------------|-----------------|------------------|
|--6-6-------------|-9-9-------------|-7-7-------------|-6-6-----4-4------|
|o-4-4-------------|-9-9-------------|-7-7-------------|-6-6-----4-4-----o|
|------------------|-7-7-------------|-5-5-------------|-4-4-----2-2------|

Pre-chorus
|-----------------|-----------------|-----------------|-----------------|
|-----------------|-----------------|-----------------|-----------------|
|-----------------|-----------------|-----------------|-----------------|
|-6-6-----6---2---|-4-4-----4---2---|-----------------|-----------------|
|-4-4-4-----4---4-|-2-2-2-----2---2-|-7-7-----7---4---|-6-6---6-4-4---4-|
|-------4---------|-------2---------|-5-5-5-0---5---5-|-4-4-4---2-2-2---|
Pm. .               . .               . .               . .

Bridge
|------------------|-----------------|-----------------|------------------|
|o-----------------|-----------------|-----------------|-----------------o|
|--6-6-6-6-6-6-6-6-|-----------------|-----------------|-4-4-4-4-4-4-4-4--|
|--6-6-6-6-6-6-6-6-|-7-7-7-7-7-7-7-7-|-2-2-2-2-2-2-2-2-|-4-4-4-4-4-4-4-4--|
|o-4-4-4-4-4-4-4-4-|-7-7-7-7-7-7-7-7-|-2-2-2-2-2-2-2-2-|-2-2-2-2-2-2-2-2-o|
|------------------|-5-5-5-5-5-5-5-5-|-0-0-0-0-0-0-0-0-|------------------|
Tap to rate this tab
 
# A B C D E F G H I J K L M N O P Q R S T U V W X Y Z