Hollywood Undead - Young chords

Highlighted       Show chord diagrams
Hollywood Undead  Young

Chords - E A D G B E
C      - X 3 5 5 X X
A#     - 6 8 8 X X X
G#     - 4 6 6 X X X
G      - 3 5 5 X X X
F      - 1 3 3 X X X
D#     - X 6 8 8 X X


Strumming  Pattern 1:
  C                          A#
E|--------------------------|-----------------|
B|--------------------------|---------8-------|
G|-------------12-----------|---7-8-----8-7---|
D|-10-12-13-10----13-12-10--|-8-----8-------8-|
A|--------------------------|-----------------|
E|--------------------------|-----------------|
  G#                    G        F
E|---------------------|------------------|
B|----------8----------|------------------|
G|----7-8------8-7-----|----7-8-7---7-8-7-|
D|-6------6--------6---|------------------|
A|---------------------|-10-------8-------|
E|---------------------|------------------|

Srtumming Pattern 2:

 | 1 e + a 2 e + a 3 e + a 4 e + a | 1 e + a 2 e + a 3 e + a 4 e + a |
 | C                               | A#                              |
E|-X---X-X-X-X-X-X-X-X-X-X-X-X-X-X-|-X---X-X-X-X-X-X-X-X-X-X-X-X-X-X-|
B|-X---X-X-X-X-X-X-X-X-X-X-X-X-X-X-|-X---X-X-X-X-X-X-X-X-X-X-X-X-X-X-|
G|-5---5-X-X-X-X-X-X-X-X-X-X-X-X-X-|-X---X-X-X-X-X-X-X-X-X-X-X-X-X-X-|
D|-5---5-X-X-X-X-X-X-X-X-X-X-X-X-X-|-8---8-X-X-X-X-X-X-X-X-X-X-X-X-X-|
A|-3---3-X-X-X-X-X-X-X-X-X-X-X-X-X-|-8---8-X-X-X-X-X-X-X-X-X-X-X-X-X-|
E|-X---X-X-X-X-X-X-X-X-X-X-X-X-X-X-|-6---6-X-X-X-X-X-X-X-X-X-X-X-X-X-|

 | 1 e + a 2 e + a 3 e + a 4 e + a | 1 e + a 2 e + a 3 e + a 4 e + a |
 | G#                              | G               F               |
E|-X---X-X-X-X-X-X-X-X-X-X-X-X-X-X-|-X---X-X-X-X-X-X-X---X-X-X-X-X-X-|
B|-X---X-X-X-X-X-X-X-X-X-X-X-X-X-X-|-X---X-X-X-X-X-X-X---X-X-X-X-X-X-|
G|-X---x-X-X-X-X-X-X-X-X-X-X-X-X-X-|-X---X-X-X-X-X-X-X---X-X-X-X-X-X-|
D|-6---6-X-X-X-X-X-X-X-X-X-X-X-X-X-|-5---5-X-X-X-X-X-3---3-X-X-X-X-X-|
A|-6---6-X-X-X-X-X-X-X-X-X-X-X-X-X-|-5---5-X-X-X-X-X-3---3-X-X-X-X-X-|
E|-4---4-X-X-X-X-X-X-X-X-X-X-X-X-X-|-3---3-X-X-X-X-X-1---1-X-X-X-X-X-|

Intro:

E|-----------------------|
B|-----8-8-----6-6---8-8-|
G|-5-5-----5-5-----5-----|
D|-----------------------|
A|-----------------------|
E|-----------------------|

Chorus:
       C              D# 
We are young, we have heart
             G#                    A#
Born in this world as it all falls apart
       C                   D#
We are strong, we don't be-long
             G#                    A#
Born in this world as it all falls apart

Interlude:
(Strumming Pattern 1)
C - A# - G# - |G - F|

Verse 1:
(Strumming Pattern 1)[If Pattern 1 is too hard use pattern 2]
          C                             A#
I see the children in the rain like the parade before the pain
          G#                               G             F
I see the love, I see the hate, I see this world that we can make
          C                            A#
I see the life, I see the sky, give it all to see you fly
     G#                              G                   F
Yes, we wave this flag of hatred but you're the ones who made it
          C                              A#
Watch the beauty of all our lies passing right before my eyes
           G#                              G               F
I hear the hate in all your words, all the wars to make us hurt
          C                         A#
We get so sick of so sick, we never wanted all this
     G#                          G         F
Medi-cation for the kids with no reason to live

Pre-Chorus:
(Strumming Pattern 2)
      C                         A#
So we march to the drums of the dammed as we come
         G#                      G   F
Watch it burn in the sun, we are numb

Chorus:
       C              D# 
We are young, we have heart
             G#                    A#
Born in this world as it all falls apart
       C                   D#
We are strong, we don't be-long
             G#                    A#
Born in this world as it all falls apart

Verse 2:
(Strumming Patern 1)[If pattern 1 is too hard use pattern 2]
      C                                  A#
As we walk among these shadows, in these streets, this fields of battle
        G#                                G                  F
Take it up, we wear the medal, raise your hands with burning candles
        C                           A#             
Hear us whisper in the dark, in the rain you see the spark
         G#                              G          F
Feel the beating of our hearts, fleeting hope as we depart
       C                          A#
All to-gether, walk alone against all we've ever known
          G#                       G        F
All we've ever really wanted was a place to call our home
        C                         A#
But you take all we are, the inno-cence of our hearts
        G#                            G         F
Made to kneel before the alter as you tear us a-part

Pre-Chorus:
(Strumming Pattern 2)
      C                         A#
So we march to the drums of the dammed as we come
         G#                      G   F
Watch it burn in the sun, we are numb

Chorus:
       C              D# 
We are young, we have heart
             G#                    A#
Born in this world as it all falls apart
       C                   D#
We are strong, we don't be-long
             G#                    A#                        |
Born in this world as it all falls apart                     |
                                                           \ | /
Bridge:                                                     \ /
        C                G#            D#             A#   _____
We will fight or we will fall till the angels save us all |     |
        C                G#            D#             A#  | X2! | <---
We will fight or we will fall till the angels save us all |_____|

Chorus:(Rung Out)
       C              D# 
We are young, we have heart
             G#                    A#
Born in this world as it all falls apart
       C                   D#
We are strong, we don't be-long
             G#                    A#
Born in this world as it all falls apart

Chorus:
       C              D# 
We are young, we have heart
             G#                    A#
Born in this world as it all falls apart
       C                   D#
We are strong, we don't be-long
             G#                    A#
Born in this world as it all falls apart

Outro:

E|-----------------------|
B|-----8-8-----6-6---8-8-|
G|-5-5-----5-5-----5-----|
D|-----------------------|
A|-----------------------|
E|-----------------------|
Tap to rate this tab
 
# A B C D E F G H I J K L M N O P Q R S T U V W X Y Z