Guitaretab - guitar tabs
Song name
# A B C D E F G H I J K L M N O P Q R S T U V W X Y Z

Jeremy Soule - Reign Of The Septims tab

Artist : Jeremy Soule
Song : reign of the septims (main theme)
Album : Oblivion soundtrack

This is the most noticable part of the song
I hope to tab more of it later.

Legend:

pull off - p
hammer on - h
Slide - s
harmonic - +
bend - b
bend then return - br
bend to - ( ) after b
held not _ ( )

(e B G D A E) Tuning

   (no tone w/ some distortion)
e----------------------------------------------------------|
B-----------------------10---------------------------------|
G-----------8--9-11--11----9--9s11s9------------------9-11-|
D--7--9-10---------------7------------7---7-11-12-12-------|
A-----------6--7--9---9----7--7-s9s7------------------7--9-|
E--5--7--9----------------------------5---5--9-10-10-------|
[ Tab from: http://www.guitaretab.com/j/jeremy-soule/184919.html ]
e---------9---------9---------------------------------------|
B--10-12-----12-12-----12-----------------------------------|
G---------6---------6------4--------------------------------|
D---7--9------9--9------9-----------------------------------|
A--------------------------2--------------------------------|
E-----------------------------------------------------------|
  (clean)
e---------------------------------------|
B-----------------------10--------------|
G-----------8--9-11--11----9--9s11s9----|
D--7--9-10---------------7------------7-|
A-----------6--7--9---9----7--7-s9s7----|
E--5--7--9----------------------------5-|  x3

e
B-------------------10-12----------(12)-|
G--------------9-11---------------------|
D--7-11-12-12--------7--9-----------(9)-|
A--------------7-10---------------------|
E--5--9-10-10---------------------------|

e---------------------------------------------------|
B---------------------------------------------------|
G-----------------------4---------------------4---7-|
D--7--9-10-9-5---7--7------7--9-10-12-10-9-7--------|
A-----------------------7---------------------7---5-|
E--5--7--8-7-3---5--5------5--7--8-10--8-7-5--------|
Related for Reign Of The Septims tab