Song name
# A B C D E F G H I J K L M N O P Q R S T U V W X Y Z

Jet - Bruises tab

Help us improve GuitareTab! Take a short survey!
Jet - Bruises (Demo)

I've only heard the demo version, so maybe the single version is differnt to this one


Intro: Em - Am - D - G (x2)

Em                       Am  
I can't live inside of a dream
D                          G
I can't live inside of the dream
Em                        Am
I'm changing my mind next week
D                         G
I'm changing my mind next week

Em            Am
bruises up my arms and a strange look
D               G
who the hell am I
Am                 Am/G
I want to tell you everything
C                  D
I can't make up my mind

e]-----|-------|--------|------------|-----------|-------12| 
b]7-7p5|-------|--------|s12-12-10---|12-12-10---|---(7)---|  
g]-----|7-9-4-5|5p4-11-9|----------12|---------12|11-------| 
d]-----|-------|--------|------------|-----------|---------| 
a]-----|-------|--------|------------|-----------|---------| 
d]-----|-------|--------|------------|-----------|---------| 

Em			 Am
never live inside of the dream
D			 G
I'm livin' inside of the dream
Em			  Am
and everythings nothing I need
D            G
this I don't believe

Em              Am
bells in birmingham ringing
D               G
who the hell am I
Am                 Am/G
I want to tell you everything
C                  D
I can't make up my mind


e]-----|-------|--------|------------|-----------|-------12| 
b]7-7p5|-------|--------|s12-12-10---|12-12-10---|---(7)---|  
g]-----|7-9-4-5|5p4-11-9|----------12|---------12|11-------| 
d]-----|-------|--------|------------|-----------|---------| 
a]-----|-------|--------|------------|-----------|---------| 
d]-----|-------|--------|------------|-----------|---------|
Related for Bruises tab