Song name
# A B C D E F G H I J K L M N O P Q R S T U V W X Y Z

Johnny And The Hurricanes - Lazy tab

                  "lazy" by Johnny & The Hurricanes

              a band that is easily forgotten from the fifties


|-----------------------------|
|-----------------------------|
|-----------------------------|
|-----------------------------|
|----2--2--2--2--2------------|
|--------------------3p2--0---| reapeat until

|-------------------------------|
|-------------------------------|
|-------------------------------|
|----2--2--2--2--2--------------|
|---------------------3p2---0---|
|-------------------------------| then repeat that until


|----7~~~~~~--5~~~~~~~--|
|----7~~~~~~--5~~~~~~~--|
|----8~~~~~~--6~~~~~~~--|
|----9~~~~~~--7~~~~~~~--|
|----9~~~~~~--7~~~~~~~--|
|----7~~~~~~--5~~~~~~~--|


|-------------------------------|
|-------------------------------|
|-------------------------------|
|-------------------------------|
|----2--2--2--2--2--------------|
|--------------------3p2--0-----|

|-------------------------------|
|-------------------------------|
|-------------------------------|
|----2--2--2--2--2--------------|
|---------------------3p2---0---|
|-------------------------------|

while the saxaphone does its little thing the guitar does this

|--------------------------------------------|
|--------------------------------------------|
|--------------------------------------------|
|--------------------------------------------|
|--2-2----------2-2----------2-2-2-2-2-2-2-2-|
|--0-0----------0-0----------0-0-0-0-0-0-0-0-|


|----------------------------------|
|----------------------------------|
|----------------------------------|
|--2-2-4-4-5-5-4-4-2-2-4-4-5-5-4-4-|
|--0-0-0-0-0-0-0-0-0-0-0-0-0-0-0-0-|
|----------------------------------|

|----------------------------------|
|----------------------------------|
|----------------------------------|
|----------------------------------|
|--2-2-4-4-2-2-4-4-2-2-4-4-2-2-4-4-|
|--0-0-0-0-0-0-0-0-0-0-0-0-0-0-0-0-|

|----------------------------------|
|----------------------------------|
|----------------------------------|
|--2-2-4-4-5-5-4-4-2-2-4-4-5-5-4-4-|
|--0-0-0-0-0-0-0-0-0-0-0-0-0-0-0-0-|
|----------------------------------|

|-------------------------------------|
|-------------------------------------|
|-------------------------------------|
|-------------------------------------|
|--2-2-4-4-2-2-4-4-2-2-4-4-2-2-4-4----|
|--0-0-0-0-0-0-0-0-0-0-0-0-0-0-0-0----|

and then back into the main riff

|-------------------------------------------------------------|
|-------------------------------------------------------------|
|-------------------------------------------------------------|
|-------------------------------------------------------------|
|---2--2--2--2--2-------------------2--2--2--2--2-------------|
|-------------------3p2--0---------------------------3p2--0---|


|----7~~~~~~~~~~--5~~~~~~~~~~~~----|
|----7~~~~~~~~~~--5~~~~~~~~~~~~----|
|----8~~~~~~~~~~--6~~~~~~~~~~~~----|
|----9~~~~~~~~~~--7~~~~~~~~~~~~----|
|----9~~~~~~~~~~--7~~~~~~~~~~~~----|
|----7~~~~~~~~~~--5~~~~~~~~~~~~----|

and your done

-Bertman
Tap to rate this tab
 
# A B C D E F G H I J K L M N O P Q R S T U V W X Y Z