Song name
# A B C D E F G H I J K L M N O P Q R S T U V W X Y Z

Johnny And The Hurricanes - Sandstorm tab

Help us improve GuitareTab! Take a short survey!
this is an old song. standard tuning too.



             "SANDSTORM" by Johnny & the Hurricanes

|------0-------2-0----2-0-------|------------|
|---0-----0-0------0-------0----|------------|
|-----------------------------0-|-2p0--------|
|-------------------------------|-----0--2~~-|
|-------------------------------|------------|
|-------------------------------|------------|

|------0-------2-0----2-0-------|------------|
|---0-----0-0------0-------0----|------------|
|-----------------------------0-|-2p0--------|
|-------------------------------|-----0--2~~-|
|-------------------------------|------------|
|-------------------------------|------------|

|------5------7-5----7-5-----|------------|
|---5----5-5------5------5---|------------|
|--------------------------5-|-7p5--------|
|----------------------------|-----5--7~~-|
|----------------------------|------------|
|----------------------------|------------|

|------0-------2-0----2-0-------|------------|
|---0-----0-0------0-------0----|------------|
|-----------------------------0-|-2p0--------|
|-------------------------------|-----0--2~~-|
|-------------------------------|------------|
|-------------------------------|------------|

|-----7-------9-7---|---5------7-5---|
|---7----7-7------7-|-5----5-5-----5-|
|-------------------|----------------|
|-------------------|----------------|
|-------------------|----------------|
|-------------------|----------------|

|------0-------2-0----2-0-------|-------|
|---0-----0-0------0-------0----|-------|
|-----------------------------0-|-2p0---|
|-------------------------------|-----2-|
|-------------------------------|-------|
|-------------------------------|-------|

|-------------------------------------|
|-------------------------------------|
|---0----0-0--0-0-0--0----0-0--0-0-0--|
|---1/2--2-2--2-2-2--1/2--2-2--2-2-2--|
|-------------------------------------|
|-------------------------------------|

|-------------------------------------|
|-------------------------------------|
|---0----0-0--0-0-0--0----0-0--0-0-0--|
|---1/2--2-2--2-2-2--1/2--2-2--2-2-2--|
|-------------------------------------|
|-------------------------------------|

|------------------------------------|
|---1----1-1--1-1-1--1----1-1--1-1-1-|
|---1/2--2-2--2-2-2--1/2--2-2--2-2-2-|
|------------------------------------|
|------------------------------------|
|------------------------------------|

|-------------------------------------|
|-------------------------------------|
|---0----0-0--0-0-0--0----0-0--0-0-0--|
|---1/2--2-2--2-2-2--1/2--2-2--2-2-2--|
|-------------------------------------|
|-------------------------------------|

|---7--7-7--9--7--7-7-7--|-5--5-5--7--5--5-5-5--|
|---7--7-7--7--7--7-7-7--|-5--5-5--5--5--5-5-5--|
|---7--7-7--7--7--7-7-7--|-5--5-5--5--5--5-5-5--|
|---9--9-9--9--9--9-9-9--|-7--7-7--7--7--7-7-7--|
|------------------------|----------------------|
|------------------------|----------------------|

|---7--7-7--9--7--7-7-7--|-5--5-5--7--5--5-5-5--|
|---7--7-7--7--7--7-7-7--|-5--5-5--5--5--5-5-5--|
|---7--7-7--7--7--7-7-7--|-5--5-5--5--5--5-5-5--|
|---9--9-9--9--9--9-9-9--|-7--7-7--7--7--7-7-7--|
|------------------------|----------------------|
|------------------------|----------------------|

|------0-------2-0----2-0-------|------------|
|---0-----0-0------0-------0----|------------|
|-----------------------------0-|-2p0--------|
|-------------------------------|-----0--2~~-|
|-------------------------------|------------|
|-------------------------------|------------|

|------0-------2-0----2-0-------|------------|
|---0-----0-0------0-------0----|------------|
|-----------------------------0-|-2p0--------|
|-------------------------------|-----0--2~~-|
|-------------------------------|------------|
|-------------------------------|------------|

repeat this stuff all throughout.

LONG LIVE JOHNNY AND THE HURRICANES!
YOU WON'T BE FORGOTTEN JOHNNY PARIS!

-BERToast
:)
Related for Sandstorm tab