Song name
# A B C D E F G H I J K L M N O P Q R S T U V W X Y Z

Johnny And The Hurricanes - Beatnik Fly tab

Title: Beatnik Fly
Tempo = 166


E |--------------------|
B |--------------------|
G |--------------------|        X4 (muted)
D |--------------------|
A |-----0-1-2-3-2-3----|
E |-1-1----------------|


E |---------------|--------------------|--------------------|--------------------|---5---5-----------|
B |---------------|-----6---6---6---5--|---8---8------------|-----8---8---8---6--|-----------------6-|
G |------------5--|---5----------------|-----------------5--|---5----------------|---------------5---|
D |---------------|--------------------|--------------------|--------------------|-------------------|
A |---------------|--------------------|--------------------|--------------------|-------------------|
E |---------------|--------------------|--------------------|--------------------|-------------------|



E |---5---5----5----6--|--10--10------10-8--|----8---6----------|------------8----|------------------|
B |-6------------------|--------------------|-----------5--6----|-----------------|----6---6---6---5-|
G |--------------------|--------------------|-------------------|--------------5--|--5---------------|
D |--------------------|--------------------|-------------------|-----------------|------------------|
A |--------------------|--------------------|-------------------|-----------------|------------------|
E |--------------------|--------------------|-------------------|-----------------|------------------|



E |------------------|-------------------|---5---5------------|----5---5---5---6--|-10--10-----10--8-|
B |--8---8-----------|----8---8---8---6--|-----------------6--|--6----------------|------------------|
G |---------------5--|--5----------------|---------------5----|-------------------|------------------|
D |------------------|-------------------|--------------------|-------------------|------------------|
A |------------------|-------------------|--------------------|-------------------|------------------|
E |------------------|-------------------|--------------------|-------------------|------------------|


E |--8--8---6--------||
B |-----------5--6---||
G |------------------||
D |------------------||
A |------------------||
E |------------------||
Tap to rate this tab
# A B C D E F G H I J K L M N O P Q R S T U V W X Y Z