Song name
# A B C D E F G H I J K L M N O P Q R S T U V W X Y Z

Jose Gonzalez - Killing For Love tab

-------------------------------------------------------------------------------
			  KILLING FOR LOVE - José González
-------------------------------------------------------------------------------
Tabbed by: Tom Walter
Email: josetabs.20.epm [at] spamgourmet.com

Tuning: D G C G A D (Capo 3)

The rhythm is difficult to get from the tab... if you practice the bassline
separately to the high part, you'll see they each follow their own rhythm,
which is consistent throughout all the sections of the song.

Verse
d|-----------------------------|-----------------------------|
A|-----------0-------------0---|-----------0-------------0---|
g|----2---2---(2)---2---2---(2)|----0---0---------0---0------|
C|-----------0---2----2----0---|-----------0-------------0---|
G|------2----------------------|------0-------------0--------|
D|-0---------------------------|-3-------------5-------------|

d|-----------------------------|-----------------------------|
A|-----------0-------------0---|-----------0-------------0---|
g|----2---2---(2)---2---2---(2)|----0---0---------0---0------|
C|-----------0---2----2----0---|-----------0-------------0---|
G|------2----------------------|------0-------------0--------|
D|-0---------------------------|-3-------------5-------------|

d|------------------3p0--------|-----------------------------|
A|-----------0-------------3p0-|-----------0-------------0---|
g|----2---2---(2)--------------|----0---0---------0---0------|
C|-----------0---2----2----0---|-----------0-------------0---|
G|------2----------------------|------0-------------0--------|
D|-0---------------------------|-3-------------5-------------|

d|-----------------------------|-----------------------------|--------------|
A|-----------0-------------0---|-----------0-------------0---|-----------0--|
g|----2---2---(2)---2---2------|----0---0---------0---0------|----0---0-----|
C|-----------0-----------------|-----------0-------------0---|-----------0--|
G|------2--------2----2p0--0---|------0-------------0--------|------0-------|
D|-0---------------------------|-3-------------5-------------|-5------------|

Chorus
d|---(0)-(0)(0)----(0)-(0)(0)--|---(0)-(0)(0)----(0)-(0)-----|
A|----0---0--0------0---0--0---|----0---0--0------0---0--0---|
g|----2---2--2(2)---2---2--2(2)|----0---0--2(2)---0---0------|
C|-----------------------------|-----------------------------|
G|(2)--(2)--(2)-(2)--(2)--(2)--|-----------------------------|
D|-0----0----0---0----0----0---|-3----3----3---5----5----5---|

d|---(0)-(0)(0)----(0)-(0)(0)--|---(0)-(0)(0)----(0)-(0)-----|
A|----0---0--0------0---0--0---|----0---0--0------0---0--0---|
g|----2---2--2(2)---2---2--2(2)|----0---0--2(2)---0---0------|
C|-----------------------------|-----------------------------|
G|(2)--(2)--(2)-(2)--(2)--(2)--|-----------------------------|
D|-0----0----0---0----0----0---|-3----3----3---5----5----5---|

d|---(0)-(0)(0)----(0)-(0)(0)--|---(0)-(0)(0)----(0)-(0)-----|
A|----0---0--0------0---0--0---|----0---0--0------0---0--0---|
g|----2---2--2(2)---2---2--2(2)|----0---0--2(2)---0---0------|
C|-----------------------------|-----------------------------|
G|(2)--(2)--(2)-(2)--(2)--(2)--|-----------------------------|
D|-0----0----0---0----0----0---|-3----3----3---5----5----5---|

d|---(0)-(0)(0)----(0)-(0)(0)--|---(0)-(0)(0)----(0)-(0)-----|----0---0--0--|
A|----0---0--0------0---0--0---|----0---0--0------0---0--0---|----0---0--0--|
g|----2---2--2(2)---2---2--2(2)|----0---0--2-2----0---0------|----0---0--0--|
C|-----------------------------|-----------------------------|-----------7--|
G|(2)--(2)--(2)-(2)--(2)--(2)--|-----------------------------|-7----7----7--|
D|-0----0----0---0----0----0---|-3----3----3---5----5----5---|-5----5----5--|

Middle 8
d|-----------0------3---3--3---|---(0)-(0)(0)----(0)-(0)-----|
A|----0---0--0------0---0--0---|----0---0--0------0---0--0---|
g|----2---2--2------2---2--2---|----0---0--0------0---0--0---|
C|-2----2----2--2-----2----2---|-4----4----4---4----4----4---|
G|-3----3----3--3-----3----3---|-5----5----5---5----5----5---|
D|-----------------------------|-----------------------------|

d|---(0)-(0)(0)----(0)-(0)-----|---(0)-(0)(0)----(0)-(0)-----|
A|----0---0--0------0---0--0---|----0---0--0------0---0--0---|
g|----0---0--0------0---0--0---|----0---0--0------0---0--0---|
C|-7----7----7--7-----7----7---|-7----7----7---7----7----0---|
G|-7----7----7--7-----7----7---|-7----7----7---7----7----0---|
D|-----------------------------|-----------------------------|

d|-----------0------3---3--3---|---(0)-(0)(0)----(0)-(0)-----|
A|----0---0--0------0---0--0---|----0---0--0------0---0--0---|
g|----2---2--2------2---2--2---|----0---0--0------0---0--0---|
C|-2----2----2--2-----2----2---|-4----4----4---4----4----4---|
G|-3----3----3--3-----3----3---|-5----5----5---5----5----5---|
D|-----------------------------|-----------------------------|

d|---(0)-(0)(0)----(0)-(0)-----|---(0)-(0)(0)--0----0----0---|
A|----0---0--0------0---0--0---|----0---0--0---0----0----0---|
g|----0---0--0------0---0--0---|----0---0--0---0----0----0---|
C|-7----7----7--7-----7----7---|-9----9----9---9----9----9---|
G|-7----7----7--7-----7----7---|-7----7----7---7----7----7---|
D|-----------------------------|---------------0----0----0---|



| /  slide up
| \  slide down
| h  hammer-on
| p  pull-off
| ~  vibrato
| +  harmonic
| x  Mute note
===============================================================================
Tap to rate this tab
# A B C D E F G H I J K L M N O P Q R S T U V W X Y Z