Guitaretab - guitar tabs
Song name
# A B C D E F G H I J K L M N O P Q R S T U V W X Y Z

Kill Hannah - Hyperactive tab

-------------------------------------------------------------------------------
			Hyperactive- Kill Hannah
-------------------------------------------------------------------------------
Tabbed by: Slimjim5792
Email: slim-jim-3@comcast.net

 Hey all, this is my first tab, but I think it sounds really close. Easy to play too! 
is used, but you can get away without it if need be. I appreciate any comments, hope this 
thanks.

Tuning: Standard (E,A,D,G,B,e)

Intro: x4      (0:00-0:28)
e|---------------------------------------------------------------------------|
B|---------------------------------------------------------------------------|
G|---------------------------------------------------------------------------|
D|444444--44--444444--77--99999999-------------------------------------------|
A|222222--44--555555--55--77777777-------------------------------------------|
E|---------------------------------------------------------------------------|

Verse: x3      (0:28-0:52)
e|---------------------------------------------------------------------------|
B|---------------------------------------------------------------------------|
G|---------------------------------------------------------------------------|
D|---------------------------------------------------------------------------|
A|99---77---22---------------------------------------------------------------|
E|77---55---00---------------------------------------------------------------|

[Distortion on]

Chorus Riff 1: x3 [Only play 10s first time] (0:55-1:10)
e|10-------------------------------------------------------------------------|
B|10-------------------------------------------------------------------------|
G|-----------6/777-----------------------------------------------------------|
D|-----4444--4/555--77777777-------------------------------------------------|
A|-----2222---------55555555-------------------------------------------------|
E|---------------------------------------------------------------------------|

 Chorus Riff 2: x1  (1:10-1:16)
e|---------------------------------------------------------------------------|
B|---------------------------------------------------------------------------|
G|------6/777----------------------------------------------------------------|
D|4444--4/555--9999999999999999----------------------------------------------|
A|2222---------7777777777777777----------------------------------------------|
E|---------------------------------------------------------------------------|

[Distortion off]

Intro: x2 (1:17-1:30)

Verse: x3 (1:31-1:55)

[Distortion on]

Chorus riff 1: x3 (1:58-2:13)

Chorus riff 2: x1 (2:13-2:19)

[Distortion still on]
[ Tab from: http://www.guitaretab.com/k/kill-hannah/155333.html ]
 Bridge riff 1: x2     (2:20-2:38)
e|---------------------------------------------------------------------------|
B|---------------------------------------------------------------------------|
G|---------------------------------------------------------------------------|
D|---------------------------------------------------------------------------|
A|99999999--77777777--55555555--5/9--7/12------------------------------------|
E|77777777--55555555--33333333--3/7--5/10------------------------------------|


 Bridge riff 2: x2    (2:39-2:52)
e|---------------------------------------------------------------------------|
B|---------------------------------------------------------------------------|
G|---------------------------------------------------------------------------|
D|---------------------------------------------------------------------------|
A|77777777--77777777--55555555555555555555555555555555----------------------|
E|99999999--55555555--33333333333333333333333333333333-----------------------|

(Distortion off)

Intro: x4    (2:52-3:20) [Switch to distortion and go directly into Verse 2]

 Verse 2: x3    (3:20-3:48)
e|---------------------------------------------------------------------------|
B|---------------------------------------------------------------------------|
G|---------------------------------------------------------------------------|
D|---------------------------------------------------------------------------|
A|99999999--77777777--2222222222222222---------------------------------------|
E|77777777--55555555--0000000000000000---------------------------------------|

 Chorus riff 1: x1   (3:48-3:53)

 Chorus riff 2 [Small change]: x1    (3:53-3:58)
e|---------------------------------------------------------------------------|
B|---------------------------------------------------------------------------|
G|------6/777----------------------------------------------------------------|
D|4444--4/555--99999999------------------------------------------------------|
A|2222---------77777777------------------------------------------------------|
E|---------------------------------------------------------------------------|

 [Distortion still on]

 Bridge riff 1: x2   (3:58-4:16)

 Outro: x1   (4:16-4:35)
e|----------------------------------------------------------------------------|
B|----------------------------------------------------------------------------|
G|----------------------------------------------------------------------------|
D|----------------------------------------------------------------------------|
A|999999--1111--121212121212--1414--17171717171717171717171717171717----------|
E|777777--9-9---101010101010--1212--15151515151515151515151515151515----------|

e|---------------------------------------------------------------------------|
B|---------------------------------------------------------------------------|
G|---------------------------------------------------------------------------|
D|---------------------------------------------------------------------------|
A|17171717171717171717171717171717--99(Let ring)-----------------------------|
E|15151515151515151515151515151515--77---------------------------------------| END


   Congrats, ur done. Hope you liked it, please rate! And if you have any questions feel 
to e-mail me, slim-jim-3@comcast.net, Thanks.

            -Slimjim5792

| /  slide up
| \  slide down
| h  hammer-on
| p  pull-off
| ~  vibrato
| +  harmonic
| x  Mute note
===============================================================================
Related for Hyperactive tab