Song name
# A B C D E F G H I J K L M N O P Q R S T U V W X Y Z

Kill Hannah - Black Poison Blood tab

Intro:
e|------------------------------------------------------------------------|
B|------------------------------------------------------------------------|
G|-----9-10------9-10-----9-10---10/12---12/14--14-15p14h15---------------|
D|---7---------7--------7-------------------------------------------------|
A|------------------------------------------------------------------------|
E|------------------------------------------------------------------------|

e|----------------------|
B|----------------------|
G|-----9-10------9-10---|
D|---7---------7--------|
A|----------------------|
E|----------------------|

e|--1--|
B|--1--|
G|--2--|
D|--3--|
A|--3--| repeat as nessacary
E|--1--|

Verse:
e|--------------------------------------------------------------------|
B|--------------------------------------------------------------------|
G|-----9-10------9-10-----9-10---10/12---12/14--14-15p14h15-----------|
D|---7---------7--------7---------------------------------------------|
A|--------------------------------------------------------------------|x2
E|--------------------------------------------------------------------|

Pre-Chorus:

*Pick Slide*

Guitar 1
e|---------------------------------------------------------|
B|---------------------------------------------------------|
G|---------------------------------------------------------|
D|-3-3-3--3-3-3--3-3-3--3-3-3--3-3-3--3-3-3--3-3-3--3-3-3--|
A|-3-3-3--3-3-3--3-3-3--3-3-3--3-3-3--3-3-3--3-3-3--3-3-3--|
E|-1-1-1--1-1-1--1-1-1--1-1-1--1-1-1--1-1-1--1-1-1--1-1-1--|

Guitar 2
e|---------------------------------------------------------|
B|---------------------------------------------------------|
G|----10-----9------10-----9------10-----9------10-----9---|
D|--10-----10-----10-----10-----10-----10-----10-----10----|
A|-8------8------8------8------8------8------8------8------|
E|---------------------------------------------------------|

Guitar 1
e|---------------------------------------------------------|
B|---------------------------------------------------------|
G|---------------------------------------------------------|
D|-5-5-5--5-5-5--5-5-5--5-5-5--5-5-5--5-5-5--5-5-5--5-5-5--|
A|-5-5-5--5-5-5--5-5-5--5-5-5--5-5-5--5-5-5--5-5-5--5-5-5--|
E|-3-3-3--3-3-3--3-3-3--3-3-3--3-3-3--3-3-3--3-3-3--3-3-3--|

Guitar 2
e|---------------------------------------------------------|
B|---------------------------------------------------------|
G|----12-----9------12-----9------12-----9------12-----9---|
D|--12-----12-----12-----12-----12-----12-----12-----12----|
A|10-----10-----10-----10-----10-----10-----10-----10------|
E|---------------------------------------------------------|

Chorus:
e|----------------------------------------------------------------------|
B|----------------------------------------------------------------------|
G|-7777777777777777555555555555555533333333333333333333333333333333-----|
D|-7777777777777777555555555555555533333333333333333333333333333333-----|
A|-5555555555555555333333333333333311111111111111111111111111111111-----|x3
E|----------------------------------------------------------------------|

On the third time, Guitar Two Plays
e|------------------------------------------|
B|-15-------13---11-10--11-13---------------|
G|----------------------------------10------|
D|------------------------------------------|
A|------------------------------------------|
E|------------------------------------------|

Pre Verse:
e|--1--|
B|--1--|
G|--2--|
D|--3--|
A|--3--| repeat as nessacary
E|--1--|

Verse:
e|--------------------------------------------------------------------|
B|--------------------------------------------------------------------|
G|-----9-10------9-10-----9-10---10/12---12/14--14-15p14h15-----------|
D|---7---------7--------7---------------------------------------------|
A|--------------------------------------------------------------------|x2
E|--------------------------------------------------------------------|

Chorus
e|----------------------------------------------------------------------|
B|----------------------------------------------------------------------|
G|-7777777777777777555555555555555533333333333333333333333333333333-----|
D|-7777777777777777555555555555555533333333333333333333333333333333-----|
A|-5555555555555555333333333333333311111111111111111111111111111111-----|x3
E|----------------------------------------------------------------------|

Outro
e|---------------------------------------------------------|
B|---------------------------------------------------------|
G|---------------------------------------------------------|
D|-3-3-3--3-3-3--3-3-3--3-3-3--3-3-3--3-3-3--3-3-3--3-3-3--|
A|-3-3-3--3-3-3--3-3-3--3-3-3--3-3-3--3-3-3--3-3-3--3-3-3--|x2 (fades out)
E|-1-1-1--1-1-1--1-1-1--1-1-1--1-1-1--1-1-1--1-1-1--1-1-1--|


Tap to rate this tab
 
# A B C D E F G H I J K L M N O P Q R S T U V W X Y Z