Song name
# A B C D E F G H I J K L M N O P Q R S T U V W X Y Z

Kings Of Leon - Beneath The Surface tab

----------------------------------------------------------------------------
			     BENEATH THE SURFACE - Kings Of Leon
-----------------------------------------------------------------------------

A lot of effects are used here primarily heavy distortion and fuzz. This is completely 
by ear (song has never been played live so no videos to use as a basis for tabbing!) and 
is my simple interpretation.

Lead: Played during intro and after chorus

e|--9-7-6-7p6------9-7-6-7p6----------|
B|------------7~~------------7~-------|
G|------------------------------------|
D|------------------------------------|
A|------------------------------------|
E|------------------------------------|

e|--9-7-6--------9-7-6-6h7p6-7p6------|
B|--------7b9br7----------------------|
G|------------------------------------|
D|------------------------------------|
A|------------------------------------|
E|------------------------------------|

SOLO
(only the very start of it, will update once i have figured it out fully!)
e|-------12b14br12----------12------------|
B|-12p10----------12--12p10---------------|
G|-----------------------------11---------|
D|----------------------------------------|
A|----------------------------------------|
E|----------------------------------------|

Other guitar:
Intro and verses
e|----------------------------------------------------------------|
B|-------------------------------11-11-11-11-11-11-12-12-12-12p11-|
G|-11-11-11-11p9--11-11-11-11p9-----------------------------------|
D|----------------------------------------------------------------|
A|----------------------------------------------------------------|
E|----------------------------------------------------------------|

CHORUS (both guitars)
    F#   Bbm   B
e|--2-----1----2-------------------------|
B|--2-----2----4-------------------------|
G|--3-----3----4-------------------------|
D|--4-----3----4-------------------------|
A|--4-----1----2-------------------------|
E|--2-----1----2-------------------------|

************************************

| /   slide up
| \   slide down
| h   hammer-on
| p   pull-off
| ~   vibrato
| +   harmonic
| x   Mute note
| b   Bend
| pb  Pre-bend
| br  Bend release
| pbr Pre-bend release
| brb Bend release bend

************************************
Tap to rate this tab
# A B C D E F G H I J K L M N O P Q R S T U V W X Y Z