Song name
# A B C D E F G H I J K L M N O P Q R S T U V W X Y Z

Kisschasy - Darkside tab

                 Dark Side - Kisschasy
-----------------------------------------------------------------------------------------------|
Tabbed by: caldog
Email: frog_on_the_moon@hotmail.com

Tuning: standard

intro
e|--------------------------------------|
B|--------------------------------------|
G|---------------------------6-6666666--|
D|--44444444-66666666-88888886-6666666--|
A|--44444444-66666666-88888884-4444444--|
E|--22222222-44444444-6666666-----------|

intro lead
e|---------------------------------------------|
B|-----------99999999-101010101010107-7777777--|
G|---------------------------------------------|
D|--44444444-66666666--7-7-7-7-7-7-74-4444444--|
A|--44444444-----------------------------------|
E|--22222222-----------------------------------|

verse
e|-----------------------------------|
B|-----------------------------------|
G|------------------xx7-xx7\xx4-xx4--|
D|--xx4-xx4/xx7-xx7-xx7-xx7\xx4-xx4--|
A|--xx4-xx4/xx7-xx7-xx5-xx5\xx2-xx2--|
E|--xx2-xx2/xx5-xx5------------------|

pre-chorus
e|------------|
B|------------|
G|--2----444--|
D|--2----444--|
A|--0----222--|
E|------------|

chorus
e|-------------------------------------------------------------------------|
B|-------------------------------------------------------------------------|
G|-22222222-44444444-------------------77777777-99999999-------------------|
D|-22222222-44444444-44444444-77777777-77777777-99999999-44444444-77777777-|
A|-00000000-22222222-44444444-77777777-55555555-77777777-44444444-77777777-|
E|-------------------22222222-55555555-------------------22222222-55555555-|

e|-------------------------------------------------------------------------|
B|-------------------------------------------------------------------------|
G|-77777777-99999999-------------------77777777-99999999-------------------|
D|-77777777-99999999-44444444-77777777-77777777-99999999-44444444-77777777-|
A|-55555555-77777777-44444444-77777777-55555555-77777777-44444444-77777777-|
E|-------------------22222222-55555555-------------------22222222-55555555-|

post-chorus
e|---------------------|
B|---------------------|
G|--77777777-99999999--|
D|--77777777-99999999--|
A|--55555555-77777777--|
E|---------------------|

intro/intro lead
verse
pre-chorus
chorus
post-chorus

bridge
e|-------------------------------------------------------------------------|
B|-------------------------------------------------------------------------|
G|-------------------77-777-7-99-999-9------------------77-777-7-99-999-9--|
D|--44-444-444-444-4-77-777-7-99-999-9-44-444-444-444-4-77-777-7-99-999-9--|
A|--44-444-444-444-4-55-555-5-77-777-7-44-444-444-444-4-55-555-5-77-777-7--|
E|--22-222-222-222-2-------------------22-222-222-222-2--------------------|

e|-------------------------------------------------|
B|----------------------------10-7---10-7---10h12--|
G|-------------------77777777------9------9--------|
D|--4444444444444444-77777777----------------------|
A|--4444444444444444-55555555----------------------|
E|--2222222222222222-------------------------------|

e|-----------------------------------------------|
B|-----------------------------------------------|
G|-------------------77777777-9-99-99-9-99-99-7--|
D|--4444444444444444-77777777-9-99-99-9-99-99-7--|
A|--4444444444444444-55555555-7-77-77-7-77-77-5--|
E|--2222222222222222-----------------------------|

chorus

outro
e|--------------------------|
B|--------------------------|
G|--------------------9-7~--|
D|--44444444-77777777-9-7~--|
A|--44444444-77777777-7-5~--|
E|--22222222-55555555-------|


| /  slide up
| \  slide down
| h  hammer-on
| ~  vibrato
| x  Mute note
============================================================================
Tap to rate this tab
# A B C D E F G H I J K L M N O P Q R S T U V W X Y Z