Guitaretab - guitar tabs
Song name
# A B C D E F G H I J K L M N O P Q R S T U V W X Y Z
Home / K / Kyuss / 800 tab

Kyuss - 800 tab

Taken from thefade.net, I did not make this tab.

Kyuss: 800
From the album: 'Blues For The Red Sun' (Dali)
 1992 Dali Records
Lyrics by John Garcia
Music by Joshua Homme
Transicribed by Joel (j_sorensson@hotmail.com)

Tuning: Down 2 Whole Steps to C (C-F-Bb-Eb-G-C)
Notes: Get a phaser and a caugh.

Intro:
c---------------------------------------|
g---------------------------------------|
eb-9--9-9-9--9--9-9-9--------9--9-12-12-|
bb-7--7-7-7--7--7-7-7-------10-10-12-12-|
f--0--0-0-0--0--0-0-0--------0--0--0--0-|
c---------------------simile------------|
[ Tab from: http://www.guitaretab.com/k/kyuss/162121.html ]
c----------------------------------------------------|
g----------------------------------------------------|
eb-9--9-12-12--9--9-12-12--9--9-12-12--12-9-9-9-12-9-|
bb-7--7-10-10--7--7-10-10--7--7-10-10--10-7-7-7-10-7-|
f--0--0--0--0--0--0--0--0--0--0--0--0---0-0-0-0--0-0-|
c----------------------------------------------------|

first part again then:

c--------------------------|
g--------------------------|
eb-9-9-12-12-14-15--14-15--|
bb-7-7-12-12-14-15--14-15--|
f--0-0--0--0--0--0---0--0--|
c--------------------------|

Second guitar:
c------------------------------|
g------------------------------|
eb-2-2-2-2-2-2-2-2-2-----------|
bb-2-2-2-2-2-2-2-2-2-----------|you get the point
f--0-0-0-0-0-0-0-0-0-----------|
c------------------------------|
Related for 800 tab
800 chords by Kyuss